Khaki And Kissaki - Kissaki - Guitar Tabs

rhytm
    
                                                                                                                                                                                                                                                                                                                                                                                                                                                                                                                                                                                                 
E|--0-----0--0--0--x--x--0--0--0-|
B|--0-----0--0--0--x--x--1--1--1-|
G|--x-----x--x--x--x--x--0--0--0-|
D|--2-----2--2--2--x--x--2--2--2-|
A|--2-----2--2--2--x--x--3--3--3-|
E|--0-----0--0--0--x--x--3--3--3-|

    
                                                                                                                                                                                                                                                                                                                                                                                                                                                                                                                                                                                                                                                                                                                                                                                                                                                                                                                                                                                                                                                                                                                                                                                              
E|--2--2--2--0--0--(0)x--x-|0-----0--0--0--x--x--0--0--0-|
B|--3--3--3--0--0--(0)x--x-|0-----0--0--0--x--x--1--1--1-|
G|--2--2--2--0--0--(0)x--x-|x-----x--x--x--x--x--0--0--0-|
D|--0--0--0--2--2--(2)x--x-|2-----2--2--2--x--x--2--2--2-|
A|--x--x--x--2-------------|2-----2--2--2--x--x--3--3--3-|
E|-----------0-------------|0-----0--0--0--x--x--3--3--3-|

    
                                                                                                                                                                                                                                                                                                                                                                                                                                                                                                                                                                                                                                                                                                                                                                                                                                                                                                                                                                                                                                                                                                                                                                                              
E|--2--2--2--0--0--(0)x--x-|0-----0--0--0--x--x--0--0--0-|
B|--3--3--3--0--0--(0)x--x-|0-----0--0--0--x--x--1--1--1-|
G|--2--2--2--0--0--(0)x--x-|x-----x--x--x--x--x--0--0--0-|
D|--0--0--0--2--2--(2)x--x-|2-----2--2--2--x--x--2--2--2-|
A|--x--x--x--2-------------|2-----2--2--2--x--x--3--3--3-|
E|-----------0-------------|0-----0--0--0--x--x--3--3--3-|

    
                                                                                                                                                                                                                                                                                                                                                                                                                                                                                                                                                                                                                                                                                                                                                                                                                                                                                                                                                                                                                                                                                                                                                                                              
E|--2--2--2--0--0--(0)x--x-|0-----0--0--0--x--x--0--0--0-|
B|--3--3--3--0--0--(0)x--x-|0-----0--0--0--x--x--1--1--1-|
G|--2--2--2--0--0--(0)x--x-|x-----x--x--x--x--x--0--0--0-|
D|--0--0--0--2--2--(2)x--x-|2-----2--2--2--x--x--2--2--2-|
A|--x--x--x--2-------------|2-----2--2--2--x--x--3--3--3-|
E|-----------0-------------|0-----0--0--0--x--x--3--3--3-|

    
                                                                                                                                                                                                                                                                                                                                                                                                                                                                                                                                                                                                                                                                                                                                                                                                                                                                                                                                                                                                                                                                                                                                                                                              
E|--2--2--2--0--0--(0)x--x-|0-----0--0--0--x--x--0--0--0-|
B|--3--3--3--0--0--(0)x--x-|0-----0--0--0--x--x--1--1--1-|
G|--2--2--2--0--0--(0)x--x-|x-----x--x--x--x--x--0--0--0-|
D|--0--0--0--2--2--(2)x--x-|2-----2--2--2--x--x--2--2--2-|
A|--x--x--x--2-------------|2-----2--2--2--x--x--3--3--3-|
E|-----------0-------------|0-----0--0--0--x--x--3--3--3-|

    
                                                                                                                                                                                                                                                                                                                                                                                                                                                                                                                                                                                                                                                                                                                                                                                                                                                                                                                                                                                                                                                                                                                                                                                              
E|--2--2--2--0--0--(0)x--x-|0-----0--0--0--x--x--0--0--0-|
B|--3--3--3--0--0--(0)x--x-|0-----0--0--0--x--x--1--1--1-|
G|--2--2--2--0--0--(0)x--x-|x-----x--x--x--x--x--0--0--0-|
D|--0--0--0--2--2--(2)x--x-|2-----2--2--2--x--x--2--2--2-|
A|--x--x--x--2-------------|2-----2--2--2--x--x--3--3--3-|
E|-----------0-------------|0-----0--0--0--x--x--3--3--3-|

    
                                                                                                                                                                                                                                                                                                                                                                                                                                                                                                                                                                                                                                                                                                                                                                                                                                                                                                                                                                                                                                                                                                                                                                                              
E|--2--2--2--0--0--(0)x--x-|0-----0--0--0--x--x--0--0--0-|
B|--3--3--3--0--0--(0)x--x-|0-----0--0--0--x--x--1--1--1-|
G|--2--2--2--0--0--(0)x--x-|x-----x--x--x--x--x--0--0--0-|
D|--0--0--0--2--2--(2)x--x-|2-----2--2--2--x--x--2--2--2-|
A|--x--x--x--2-------------|2-----2--2--2--x--x--3--3--3-|
E|-----------0-------------|0-----0--0--0--x--x--3--3--3-|

    
                                                                                                                                                                                                                                                                                                                                                                                                                                                                                                                                                                                                                                                                                                                                                                                                                                                                                                                                                                                                                                                                                                                                                                                              
E|--2--2--2--0--0--(0)x--x-|0-----0--0--0--x--x--0--0--0-|
B|--3--3--3--0--0--(0)x--x-|0-----0--0--0--x--x--1--1--1-|
G|--2--2--2--0--0--(0)x--x-|x-----x--x--x--x--x--0--0--0-|
D|--0--0--0--2--2--(2)x--x-|2-----2--2--2--x--x--2--2--2-|
A|--x--x--x--2-------------|2-----2--2--2--x--x--3--3--3-|
E|-----------0-------------|0-----0--0--0--x--x--3--3--3-|

    
                                                                                                                                                                                                                                                                                                                                                                                                                                                                                                                                                                                                                                                                                                                                                                                                                                                                                                                                                                                                                                                                                                                                                                                              
E|--2--2--2--0--0--(0)x--x-|0-----0--0--0--x--x--0--0--0-|
B|--3--3--3--0--0--(0)x--x-|0-----0--0--0--x--x--1--1--1-|
G|--2--2--2--0--0--(0)x--x-|x-----x--x--x--x--x--0--0--0-|
D|--0--0--0--2--2--(2)x--x-|2-----2--2--2--x--x--2--2--2-|
A|--x--x--x--2-------------|2-----2--2--2--x--x--3--3--3-|
E|-----------0-------------|0-----0--0--0--x--x--3--3--3-|

    
                                                                                                                                                                                                                                                                                                                                                                                                                                                                                                                                                                                                                                                                                                                                                                                                                                                                                                                                                                                                                                                                                                                                                                                              
E|--2--2--2--0--0--(0)x--x-|0----------------------|
B|--3--3--3--0--0--(0)x--x-|0----------------------|
G|--2--2--2--0--0--(0)x--x-|0----------------------|
D|--0--0--0--2--2--(2)x--x-|2----------------------|
A|--x--x--x--2-------------|2----------------------|
E|-----------0-------------|0----------------------|

    
                                                                                                                                                                                                                                                                                                                                                                                                                                                                                                                                                                                                                                                                                                                                                                                                                                                                                                                                                                                                                                                                                                                                                                                              
E|--x-----x-----x-----x----|0-----0--0--0--x--x--0--0--0-|
B|--x-----x-----x-----x----|0-----0--0--0--x--x--1--1--1-|
G|--x-----x-----x-----x----|x-----x--x--x--x--x--0--0--0-|
D|--x-----x-----x-----x----|2-----2--2--2--x--x--2--2--2-|
A|--x-----x-----x-----x----|2-----2--2--2--x--x--3--3--3-|
E|--x-----x-----x-----x----|0-----0--0--0--x--x--3--3--3-|

    
                                                                                                                                                                                                                                                                                                                                                                                                                                                                                                                                                                                                                                                                                                                                                                                                                                                                                                                                                                                                                                                                                                                                                                                              
E|--2--2--2--0--0--(0)x--x-|0-----0--0--0--x--x--0--0--0-|
B|--3--3--3--0--0--(0)x--x-|0-----0--0--0--x--x--1--1--1-|
G|--2--2--2--0--0--(0)x--x-|x-----x--x--x--x--x--0--0--0-|
D|--0--0--0--2--2--(2)x--x-|2-----2--2--2--x--x--2--2--2-|
A|--x--x--x--2-------------|2-----2--2--2--x--x--3--3--3-|
E|-----------0-------------|0-----0--0--0--x--x--3--3--3-|

    
                                                                                                                                                                                                                                                                                                                                                                                                                                                                                                                                                                                                                                                                                                                                                                                                                                                                                                                                                                                                                                                                                                                                                                                              
E|--2--2--2--0--0--(0)x--x-|0-----0--0--0--x--x--0--0--0-|
B|--3--3--3--0--0--(0)x--x-|0-----0--0--0--x--x--1--1--1-|
G|--2--2--2--0--0--(0)x--x-|x-----x--x--x--x--x--0--0--0-|
D|--0--0--0--2--2--(2)x--x-|2-----2--2--2--x--x--2--2--2-|
A|--x--x--x--2-------------|2-----2--2--2--x--x--3--3--3-|
E|-----------0-------------|0-----0--0--0--x--x--3--3--3-|

    
                                                                                                                                                                                                                                                                                                                                                                                                                                                                                                                                                                                                                                                                                                                                                                                                                                                                                                                                                                                                                                                                                                                                                                                              
E|--2--2--2--0--0--(0)x--x-|0-----0--0--0--x--x--0--0--0-|
B|--3--3--3--0--0--(0)x--x-|0-----0--0--0--x--x--1--1--1-|
G|--2--2--2--0--0--(0)x--x-|x-----x--x--x--x--x--0--0--0-|
D|--0--0--0--2--2--(2)x--x-|2-----2--2--2--x--x--2--2--2-|
A|--x--x--x--2-------------|2-----2--2--2--x--x--3--3--3-|
E|-----------0-------------|0-----0--0--0--x--x--3--3--3-|

    
                                                                                                                                                                                                                                                                                                                                                                                                                                                                                                                                                                                                                                                                                                                                                                                                                                                                                                                                                                                                                                                                                                                                                                                              
E|--2--2--2--0--0--(0)x--x-|0-----0--0--0--x--x--0--0--0-|
B|--3--3--3--0--0--(0)x--x-|0-----0--0--0--x--x--1--1--1-|
G|--2--2--2--0--0--(0)x--x-|x-----x--x--x--x--x--0--0--0-|
D|--0--0--0--2--2--(2)x--x-|2-----2--2--2--x--x--2--2--2-|
A|--x--x--x--2-------------|2-----2--2--2--x--x--3--3--3-|
E|-----------0-------------|0-----0--0--0--x--x--3--3--3-|

    
                                                                                                                                                                                                                                                                                                                                                                                                                                                                                                                                                                                                                                                                                                                                                                                                                                                                                                                                                                                                                                                                                                                                                                                              
E|--2--2--2--0--0--(0)x--x-|0-----0--0--0--x--x--0--0--0-|
B|--3--3--3--0--0--(0)x--x-|0-----0--0--0--x--x--1--1--1-|
G|--2--2--2--0--0--(0)x--x-|x-----x--x--x--x--x--0--0--0-|
D|--0--0--0--2--2--(2)x--x-|2-----2--2--2--x--x--2--2--2-|
A|--x--x--x--2-------------|2-----2--2--2--x--x--3--3--3-|
E|-----------0-------------|0-----0--0--0--x--x--3--3--3-|

    
                                                                                                                                                                                                                                                                                                                                                                                                                                                                                                                                                                                                                                                                                                                                                                                                                                                                                                                                                                                                                                                                                                                                                                                              
E|--2--2--2--0--0--(0)x--x-|0-----0--0--0--x--x--0--0--0-|
B|--3--3--3--0--0--(0)x--x-|0-----0--0--0--x--x--1--1--1-|
G|--2--2--2--0--0--(0)x--x-|x-----x--x--x--x--x--0--0--0-|
D|--0--0--0--2--2--(2)x--x-|2-----2--2--2--x--x--2--2--2-|
A|--x--x--x--2-------------|2-----2--2--2--x--x--3--3--3-|
E|-----------0-------------|0-----0--0--0--x--x--3--3--3-|

    
                                                                                                                                                                                                                                                                                                                                                                                                                                                                                                                                                                                                                                                                                                                                                                                                                                                                                                                                                                                                                                                                                                                                                                                              
E|--2--2--2--0--0--(0)x--x-|0-----0--0--0--x--x--0--0--0-|
B|--3--3--3--0--0--(0)x--x-|0-----0--0--0--x--x--1--1--1-|
G|--2--2--2--0--0--(0)x--x-|x-----x--x--x--x--x--0--0--0-|
D|--0--0--0--2--2--(2)x--x-|2-----2--2--2--x--x--2--2--2-|
A|--x--x--x--2-------------|2-----2--2--2--x--x--3--3--3-|
E|-----------0-------------|0-----0--0--0--x--x--3--3--3-|

    
                                                                                                                                                                                                                                                                                                                                                                                                                                                                                                                                                                                                                                                                                                                                                                                                                                                                                                                                                                                                                                                                                                                                                                                              
E|--2--2--2--0--0--(0)x--x-|0-----0--0--0--x--x--0--0--0-|
B|--3--3--3--0--0--(0)x--x-|0-----0--0--0--x--x--1--1--1-|
G|--2--2--2--0--0--(0)x--x-|x-----x--x--x--x--x--0--0--0-|
D|--0--0--0--2--2--(2)x--x-|2-----2--2--2--x--x--2--2--2-|
A|--x--x--x--2-------------|2-----2--2--2--x--x--3--3--3-|
E|-----------0-------------|0-----0--0--0--x--x--3--3--3-|

    
                                                                                                                                                                                                                                                                                                                                                                                                                                                                                                                                                                                                                                                                                                                                                                                                                                                                                                                                                                                                                                                                                                                                                                                              
E|--2--2--2--0--0--(0)x--x-|0-----0--0--0--x--x--0--0--0-|
B|--3--3--3--0--0--(0)x--x-|0-----0--0--0--x--x--1--1--1-|
G|--2--2--2--0--0--(0)x--x-|x-----x--x--x--x--x--0--0--0-|
D|--0--0--0--2--2--(2)x--x-|2-----2--2--2--x--x--2--2--2-|
A|--x--x--x--2-------------|2-----2--2--2--x--x--3--3--3-|
E|-----------0-------------|0-----0--0--0--x--x--3--3--3-|

    
                                                                                                                                                                                                                                                                                                                                                                                                                                                                                                                                                                                                                                                                                                                                                                                                                                                                                                                                                                                                                                                                                                                                                                                              
E|--2--2--2--0--0--(0)x--x-|0-----0--0--0--x--x--0--0--0-|
B|--3--3--3--0--0--(0)x--x-|0-----0--0--0--x--x--1--1--1-|
G|--2--2--2--0--0--(0)x--x-|x-----x--x--x--x--x--0--0--0-|
D|--0--0--0--2--2--(2)x--x-|2-----2--2--2--x--x--2--2--2-|
A|--x--x--x--2-------------|2-----2--2--2--x--x--3--3--3-|
E|-----------0-------------|0-----0--0--0--x--x--3--3--3-|

    
                                                                                                                                                                                                                                                                                                                                                                                                                                                                                                                                                                                                                                                                                                                                                                                                                                                                                                                                                                                                                                                                                                                                                                                              
E|--2--2--2--0--0--(0)x--x-|0-----0--0--0--x--x--0--0--0-|
B|--3--3--3--0--0--(0)x--x-|0-----0--0--0--x--x--1--1--1-|
G|--2--2--2--0--0--(0)x--x-|x-----x--x--x--x--x--0--0--0-|
D|--0--0--0--2--2--(2)x--x-|2-----2--2--2--x--x--2--2--2-|
A|--x--x--x--2-------------|2-----2--2--2--x--x--3--3--3-|
E|-----------0-------------|0-----0--0--0--x--x--3--3--3-|

    
                                                                                                                                                                                                                                                                                                                                                                                                                                                                                                                                                                                                                                                                                                                                                                                                                                                                                                                                                                                                                                                                                                                                                                                              
E|--2--2--2--0--0--(0)x--x-|0-----0--0--0--x--x--0--0--0-|
B|--3--3--3--0--0--(0)x--x-|0-----0--0--0--x--x--1--1--1-|
G|--2--2--2--0--0--(0)x--x-|x-----x--x--x--x--x--0--0--0-|
D|--0--0--0--2--2--(2)x--x-|2-----2--2--2--x--x--2--2--2-|
A|--x--x--x--2-------------|2-----2--2--2--x--x--3--3--3-|
E|-----------0-------------|0-----0--0--0--x--x--3--3--3-|

    
                                                                                                                                                                                                                                                                                                                                                                                                                                                                                                                                                                                                 
E|--0----------------------|
B|--0----------------------|
G|--x----------------------|
D|--2----------------------|
A|--2----------------------|
E|--0----------------------|

    
                                                                                                                                                                                                                                                                                                                                                                                                                                                                                                                                                                                                                                                                                                                                                                                                                                                                                                                                                                                                                                                                                                                                                                                              
E|--0-----0--0--0--x--x--0--0--0-|2--2--2--0--0--(0)x--x-|
B|--0-----0--0--0--x--x--1--1--1-|3--3--3--0--0--(0)x--x-|
G|--x-----x--x--x--x--x--0--0--0-|2--2--2--0--0--(0)x--x-|
D|--2-----2--2--2--x--x--2--2--2-|0--0--0--2--2--(2)x--x-|
A|--2-----2--2--2--x--x--3--3--3-|x--x--x--2-------------|
E|--0-----0--0--0--x--x--3--3--3-|---------0-------------|

    
                                                                                                                                                                                                                                                                                                                                                                                                                                                                                                                                                                                                                                                                                                                                                                                                                                                                                                                                                                                                                                                                                                                                                                                              
E|--0-----0--0--0--x--x--0--0--0-|2--2--2--0--0--(0)x--x-|
B|--0-----0--0--0--x--x--1--1--1-|3--3--3--0--0--(0)x--x-|
G|--x-----x--x--x--x--x--0--0--0-|2--2--2--0--0--(0)x--x-|
D|--2-----2--2--2--x--x--2--2--2-|0--0--0--2--2--(2)x--x-|
A|--2-----2--2--2--x--x--3--3--3-|x--x--x--2-------------|
E|--0-----0--0--0--x--x--3--3--3-|---------0-------------|

    
                                                                                                                                                                                                                                                                                                                                                                                                                                                                                                                                                                                                                                                                                                                                                                                                                                                                                                                                                                                                                                                                                                                                                                                              
E|--0-----0--0--0--x--x--0--0--0-|2--2--2--0--0--(0)x--x-|
B|--0-----0--0--0--x--x--1--1--1-|3--3--3--0--0--(0)x--x-|
G|--x-----x--x--x--x--x--0--0--0-|2--2--2--0--0--(0)x--x-|
D|--2-----2--2--2--x--x--2--2--2-|0--0--0--2--2--(2)x--x-|
A|--2-----2--2--2--x--x--3--3--3-|x--x--x--2-------------|
E|--0-----0--0--0--x--x--3--3--3-|---------0-------------|

    
                                                                                                                                                                                                                                                                                                                                                                                                                                                                                                                                                                                                                                                                                                                                                                                                                                                                                                                                                                                                                                                                                                                                                                                              
E|--0-----0--0--0--x--x--0--0--0-|2--2--2--0--0--(0)x--x-|
B|--0-----0--0--0--x--x--1--1--1-|3--3--3--0--0--(0)x--x-|
G|--x-----x--x--x--x--x--0--0--0-|2--2--2--0--0--(0)x--x-|
D|--2-----2--2--2--x--x--2--2--2-|0--0--0--2--2--(2)x--x-|
A|--2-----2--2--2--x--x--3--3--3-|x--x--x--2-------------|
E|--0-----0--0--0--x--x--3--3--3-|---------0-------------|

    
                                                                                                                                                                                                                                                                                                                                                                                                                                                                                                                                                                                                 
E|-------------------------|
B|-------------------------|
G|-------------------------|
D|--2----------------------|
A|--2----------------------|
E|--0----------------------|
tabs and chords, guitar tabs, music transcription, music technology, deep learning, music information retrieval, transcribe into tabs & chords, chordify, music renditions, songsterr, reverbnation, tabulature, bollywood chords, ultimate guitar, yousician, guitar lessons, acoustic guitar, electric guitar, guitar tuner, 911 tabs