Guitar Tabs for Burzum Key To The Gate

Burzum - Key to the gate 


OPENING RIFF 



My eyes are shut, I cannot see through clear is dispair 
I drift far away from places of which you seek 


OPENING RIFF 


though i seek the hell, you close the gate before me 
your life is right and I am to follow to 
your paradise
E|-----------------------------------------------------------
B|--------------0--------------------------------0-----------
G|-----0-----0-----0-----0--------------0-----0-----0-----0--
D|--------4-----------4--------------------4-----------4-----
A|--3--------------------------------3-----------------------
E|-----------------------------------------------------------


AAHHH
E|-----------------------------------------------------------------
B|--------------0--------------------------------0-----------------
G|-----0-----0-----0-----0--------------0-----0-----0-----0--------
D|--------3-----------3--------------------3-----------3-----------
A|--2--------------------------------2-----------------------------
E|-----------------------------------------------------------------


AAAHHH
E|-----------------------------------------------------------------
B|--------------0--------------------------------0-----------------
G|-----0-----0-----0-----0--------------0-----0-----0-----0--------
D|--------4-----------4--------------------4-----------4-----------
A|--3--------------------------------3-----------------------------
E|-----------------------------------------------------------------



E|-----------------------------------------------------------
B|--------------0--------------------------------0-----------
G|-----0-----0-----0-----0--------------0-----0-----0--------
D|--------3-----------3--------------------3-----------3-----
A|--2--------------------------------2--------------------2--
E|-----------------------------------------------------------




E|--------------------------------------------------------------------------------------
B|-----------------------------------------------------------0--------------------0-----
G|--------0--9--0--9--------------0--9--0--9--------------5-----5--------------7-----7--
D|-----8-----------------------8-----------------------6--------------------8-----------
A|--7-----------------------7-----------------------7--------------------9--------------
E|--------------------------------------------------------------------------------------



E|-----------------------------------------------------------------------------------
B|--------------------------------------------------------0--------------------0-----
G|--------9--0--9--0--------------0--9--0--------------5-----5--------------7-----7--
D|-----8-----------------------8--------------------6--------------------8-----------
A|--7-----------------------7--------------------7--------------------9--------------
E|-----------------------------------------------------------------------------------


I cannot fall in love
E|--------------------------------------------------------------------------------
B|-----------------------------------------------------0--------------------0-----
G|--------0--9--0--------------0--9--0--------------5-----5--------------7-----7--
D|-----8--------------------8--------------------6--------------------8-----------
A|--7--------------------7--------------------7--------------------9--------------
E|--------------------------------------------------------------------------------



AAAHH!!
E|-----------------------------------------------------------------------------------------------------
B|-----------------------------------------------------0--------------------0--------------------0-----
G|--------0--9--0--------------0--9--0--------------5-----5--------------7-----7--------------7-----7--
D|-----8--------------------8--------------------6--------------------8--------------------8-----------
A|--7--------------------7--------------------7--------------------9--------------------9--------------
E|-----------------------------------------------------------------------------------------------------


Love is for them, lusting is for the sky 
E|--------------------------------------
B|-----------0--------------------0-----
G|--------7-----7--------------6-----6--
D|-----6--------------------5-----------
A|--5--------------------4--------------
E|--------------------------------------



Heaven
E|--------------------------------------------------------------------------------------------------------------
B|-----------1-----------------------1-----------------------0-----------------------1--------------------1-----
G|--------0-----0-----------------0-----0-----------------0-----0-----------------2-----2--------------2-----2--
D|-----2-----------2-----------2-----------2-----------2-----------2-----------2--------------------2-----------
A|--3-----------------------3-----------------------2-----------------------0--------------------0--------------
E|--------------------------------------------------------------------------------------------------------------



E|-----------------------------------------------------------------------------------------------------
B|-----------1--------------------1--------------------1--------------------1--------------------1-----
G|--------2-----2--------------2-----2--------------2-----2--------------2-----2--------------2-----2--
D|-----3--------------------3--------------------2--------------------2--------------------3-----------
A|--0--------------------0--------------------0--------------------0--------------------0--------------
E|-----------------------------------------------------------------------------------------------------



E|--------------------------------------------------------------------------------------
B|-----------0--------------------0--------------------0-----------------------0--------
G|--------7-----7--------------7-----7--------------7-----7-----------------6-----6-----
D|-----8--------------------8--------------------6-----------------------5--------------
A|--9--------------------9--------------------5-----------------------4-----------------
E|--------------------------------------------------------------------------------------


Why did I come to this world of sorrow 
E|-----------------------------------------------------------------------------------------------
B|-----------------------------------------------------------------------------------------------
G|-----------0-----------------0-----------------0--------------------0--------------------0-----
D|--------0-----------------0-----------------10----10-------------9-----9--------------7-----7--
A|-----4-----------------4-----------------9--------------------8--------------------6-----------
E|--2-----------------2-----------------8--------------------7--------------------5--------------


Why is this true 
E|--------------------------------------------------------------------------------
B|--------------------------------0--------------------0--------------------0-----
G|-----------0-----------------5-----5--------------7-----7--------------7-----7--
D|--------7-----7-----------6--------------------8--------------------8-----------
A|-----6-----------------7--------------------9--------------------9--------------
E|--5-----------------------------------------------------------------------------



E|--------------------------------------
B|-----------0--------------------0-----
G|--------7-----7--------------6-----6--
D|-----6--------------------5-----------
A|--5--------------------4--------------
E|--------------------------------------


Where is my dagger of sacrifice 
E|--------------------------------------------------------------------------------------------
B|--------------------------------------------------------------------------------------------
G|-----------0-----------------0--------------0-----------------------0-----------------------
D|--------0-----------------0--------------10----10----------------9-----9-----------------7--
A|-----4-----------------4--------------9-----------------------8-----------------------6-----
E|--2-----------------2--------------8-----------------------7-----------------------5--------



E|-----------------------------------------------------------------------------------------------
B|-----------0--------------------------0-----------------------0-----------------------0--------
G|--------0-----0--------------------0-----0-----------------0-----0-----------------0-----0-----
D|-----7-----------7--------------7-----------7-----------7-----------7-----------7-----------7--
A|--0--------------------------0-----------------------6-----------------------6-----------------
E|-----------------------------------------------------------------------------------------------



E|--------------------------------------------------------------------------------------------------
B|-----------0--------------------------0-----------------------0-----------------------0-----------
G|--------0-----0--------------------0-----0-----------------0-----0-----------------0-----0-----0--
D|-----7-----------7--------------7-----------7-----------7-----------7-----------7-----------7-----
A|--0--------------------------0-----------------------6-----------------------6--------------------
E|--------------------------------------------------------------------------------------------------


(played twice in a row)
E|--------------------------------------------------------------------------------------------------------
B|-----------------------------------------------------------0--------------------------------------------
G|-----------0-----------------2--------------------------0-----0-----------------------------------------
D|--------2-----2-----------2--------------------------2-----------2--------2-----------------------------
A|-----2-----------------0--------------3--------2-----------------------0-----------5--------4--------3--
E|--0-----------------------------------------------------------------------------3--------2--------1-----


I will open… … 
E|-----------------------------------------------------------------------------------
B|-----------------------------------------------------------------------------------
G|--------0--------------------0-----------------------0--------------------0--------
D|-----2-----2--------------2-----2-----------------0-----0--------------0-----0-----
A|--------------2--------------------2-----------------------5--------------------4--
E|--0--------------------0-----------------------3--------------------2--------------


The gates to hell 
E|-----------------------------------------------------------------------------------
B|-----------------------------------------------------------------------------------
G|--------0--------------------0-----------------------0--------------------0--------
D|-----2-----2--------------2-----2-----------------0-----0--------------0-----0-----
A|--------------2--------------------2-----------------------5--------------------4--
E|--0--------------------0-----------------------3--------------------2--------------



SOLO 
E|--------------------------------------------------------------------------------------------------
B|--------------------------12-10----10-12-10----10----------------------------------------9--------
G|--9--11-12----9--11-12----------12----------12----12----9--11-12-11-9--11-------9--11-12----12-11-
D|--------------------------------------------------------------------------------------------------
A|--------------------------------------------------------------------------------------------------
E|--------------------------------------------------------------------------------------------------



E|-----------------------------------------------------------------------------------------------------------------------
B|--------10-12-10----10-------10-12-10----------------------------------------------------------------------------------
G|--12-------------12-------12----------12-11-------------9-----12-11-------11-12-11-------9-----12-11-------11-12-11-9--
D|-----------------------------------------------------------9--------------------------------9--------------------------
A|-----------------------------------------------------------------------------------------------------------------------
E|-----------------------------------------------------------------------------------------------------------------------




E|-----------------------------------------------------------------------------
B|--------------------------------------------1--------------------1-----------
G|-----------------------0-----------------0--------0-----------0-----------0--
D|--------2-----------2--------0--------2--------2-----------2-----------2-----
A|-----2-----------2--------2--------3--------------------3--------------------
E|--0-----------3--------------------------------------------------------------




E|--------------------------------------------------------------------------------
B|--------------------------------------------------------------------------------
G|-----------0-----------------------0-----------------------------------------0--
D|--------2-----------2-----------2-----------2--------------0--------------0-----
A|-----2-----------2-----------2-----------2--------------5--------------4--------
E|--0-----------------------0--------------------------3--------------2-----------


ONE DAY 
( slide and tap part of the song ) 
E|-----------------------------------------------------
B|-----------------------------------------------------
G|-----------------------------------------------------
D|-----------------------------------------------------
A|-----------------------------------------------------
E|-----------------------------------------------------


E|--------------------------------------------------------------------------------------------
B|-----------------------------------------------------1--------------------------1-----------
G|--------------------------0-----------------------0-----------0--------------0-----------0--
D|--------2--------------2-----------0-----------2-----------2--------------2-----------2-----
A|-----2--------------2-----------2-----------3--------------------------3--------------------
E|--0--------------3--------------------------------------------------------------------------



E|-----------------------------------------------------------------------------------
B|-----------------------------------------------------------------------------------
G|-----------0--------------------------0-----------------------------------0--------
D|--------2-----------0--------------2-----------0-----------0-----------0-----------
A|-----2-----------2--------------2-----------2-----------5-----------4--------------
E|--0--------------------------0-----------------------3-----------2--------------0--







tabs and chords, guitar tabs, music transcription, music technology, deep learning, music information retrieval, transcribe into tabs & chords, chordify, music renditions, songsterr, reverbnation, tabulature, bollywood chords, ultimate guitar, yousician, guitar lessons, acoustic guitar, electric guitar, guitar tuner, 911 tabs