Guitar Tabs for Katy Perry - The One That Got Away

Katy Perry - The One That Got Away

1st Verse

E|--7--------------7------------7--------------7-----------
B|-----9-----9--------9-----9------9-----9--------9-----9--
G|--------9--------------9------------8--------------8-----
D|---------------------------------------------------------
A|---------------------------------------------------------
E|---------------------------------------------------------

E|--9--------------9-----------9-------------9-------------
B|-----9-----9--------9-----9-----10-----10-----10-----10--
G|--------9--------------9------------9-------------9------
D|---------------------------------------------------------
A|---------------------------------------------------------
E|---------------------------------------------------------

 (E)
Summer after high school when we first met

 (G#m)
We make out in you mustang to radio head

    (C#m)                                        (A)
And on my 18th birthday we bought matching tattoos

      (E)
Used to steal your parent's liquor and climb to the roof

(G#m)
Talk about our future like we had a clue

       (C#m)                              (A)
Never planned that one day I'd be losing you

Chorus

            (E)                    (G#m)
In another life I would be your girl

                  (C#m)                      (A)
We keep all our promises be us against the world

            (E)                      (G#m)
In another life I would make you stay

                    (C#m)                            (A)
So I don't have to say you were the one that got away

The one that got away

2nd Verse

(E)
I was June you were my Johnny Cash

      (G#m)
Never one without the other we made a pact

(C#m)                                          (A)
Sometimes when I miss you I put those records on, woah

 (E)
Someone said you had your tattoo removed

(G#m)
Saw you down town singin' the blues

      (C#m)                                      (A)
It's time to face the music I'm no longer your muse

Chorus

            (E)                    (G#m)
In another life I would be your girl

                  (C#m)                      (A)
We keep all our promises be us against the world

            (E)                      (G#m)
In another life I would make you stay

                   (C#m)                            (A)
So I don't have to say you were the one that got away

The one that got away

Pos-Chorus

(E)                
The one    
  
(G#m)          
The one     
  
(C#m)  
The one  
  
 (A) 
The one that got away

Bridge

(B)                              (C#m)          (A)
  All his money can't buy me a time machine no
  
(B)                           (C#m)           (A)
  Can't replace you with a million rings no
  
(B)                            (C#m)      (A)
  I shoulda told you what you meant to me woah
  
(B)
  Cause now I pay the price

Chorus

            (E)                    (G#m)
In another life I would be your girl

                  (C#m)                        (A)
We keep all our promises be us against the world

            (E)                    (G#m)
In another life I would make you stay

                    (C#m)                           (A)
So I don't have to say you were the one that got away

The one that got away

Pos-Chorus

(E)                
The one    
  
(G#m)          
The one     
  
(C#m)  (A) 
The one    

Ending

            (E)                     (G#m)
In another life I would make you stay

                    (C#m)                            (A)
So I don't have to say you were the one that got away

                   (E)
The one that got away
----------------------------------------------------------------------------------------------------
Chords

    E     G#m  C#m    A     B
E|--0-----4-----4-----0-----2--
B|--0-----4-----5-----2-----4--
G|--1-----4-----6-----2-----4--
D|--2-----6-----6-----2-----4--
A|--2-----6-----4-----0-----2--
E|--0-----4--------------------
tabs and chords, guitar tabs, music transcription, music technology, deep learning, music information retrieval, transcribe into tabs & chords, chordify, music renditions, songsterr, reverbnation, tabulature, bollywood chords, ultimate guitar, yousician, guitar lessons, acoustic guitar, electric guitar, guitar tuner, 911 tabs