Guitar Tabs for Kane Mia Eyxi

(/) Slide Up  (\) Slide Down  (h) Hammer On  (p) Pull Off  (b) Bend (r) Release (v) Vibrato (x) Muted

Tabs & Chords
BPM : 104.0
Check Track 2 for Chord Positions 

    Cm                                                 A#                                     G# 
E|-----3--8--3--3-----3--3-----3--3--------3-----------------------------------------------------
B|--------------------------------------4--------------6--3-----6--3-----6--6--3--6-----6-----4--
G|-----------------------------------------------5-----------------------------------------------
D|-----------------------------------------------------------------------------------------------
A|--3-----------------------------------------3--------------------------------------------------
E|-----------------------------------------------------------------------------------------------

                                        G                                   Cm                
E|--------------------------------------------------------------------3-----3--8--3-----------
B|--4-----------4--------------------4--3-----3-----3-----3--3-----6-----------------6--------
G|--------5--------------------------------------------------------------------------------5--
D|--------------------------------------------------------------------------------------------
A|--------------------------3-----------------------------------------------------------------
E|-----------------4-----4--------4-----------------------------------------------------------

                               A#                                  G#       
E|--------3--------3-----3--------------------------------------------------
B|--------------4--------------6--6--3-----3--6--3-----6-----6-----4--------
G|-----5--------------------------------------------------------------------
D|--------------------------------------------------------------------------
A|--------------------------------------------------------------------0--3--
E|--------------------------------------------------------------------------

Guitar Tabs for Kane Mia Eyxi






    Cm                                                 A#                                     G# 
E|--3--------------------------------------------------1--------------------------------------4--
B|--4--------------------------------------------------3--------------------------------------4--
G|--5--------------------------------------------------3--------------------------------------5--
D|--5--------------------------------------------------3--------------------------------------6--
A|--3--------------------------------------------------1--------------------------------------6--
E|--------------------------------------------------------------------------------------------4--

                                        G                                   Cm                
E|--------------------------------------3-----------------------------------3-----------------
B|--------------------------------------3-----------------------------------4-----------------
G|--------------------------------------4-----------------------------------5-----------------
D|--------------------------------------5-----------------------------------5-----------------
A|--------------------------------------5-----------------------------------3-----------------
E|--------------------------------------3-----------------------------------------------------

                               A#                                  G#       
E|-----------------------------1-----------------------------------4--------
B|-----------------------------3-----------------------------------4--------
G|-----------------------------3-----------------------------------5--------
D|-----------------------------3-----------------------------------6--------
A|-----------------------------1-----------------------------------6--------
E|-----------------------------------------------------------------4--------

tabs and chords, guitar tabs, music transcription, music technology, deep learning, music information retrieval, transcribe into tabs & chords, chordify, music renditions, songsterr, reverbnation, tabulature, bollywood chords, ultimate guitar, yousician, guitar lessons, acoustic guitar, electric guitar, guitar tuner, 911 tabs