Guitar Tabs for Kaiak Bed Of Roses

(/) Slide Up  (\) Slide Down  (h) Hammer On  (p) Pull Off  (b) Bend (r) Release (v) Vibrato (x) Muted

Tabs for Song : 

Song lyrics here


Song lyrics here
E|--------------------------------------------------------------------------------------------------------------
B|--------------------------------------------------------------------------------------------------------------
G|--------------------------------------------------------------------------------------------------------------
D|--------7--------7--------11-------11-------7--------7--------11-------11-------5--------5--------5--------5--
A|--------------------------------------------------------------------------------------------------------------
D|--0--0-----0--0-----0--0-----0--0-----0--0-----0--0-----0--0-----0--0-----5--5-----5--5-----5--5-----5--5-----

E|--------------------------------------
B|--------------------------------------
G|--------------------------------------
D|--------7--------7--------11-------11-
A|--------------------------------------
D|--0--0-----0--0-----0--0-----0--0-----

E|--------------------------------------------------------------------------------------------------------------
B|--------------------------------------------------------------------------------------------------------------
G|--------------------------------------------------------------------------------------------------------------
D|--------5--------5--------5--------5--------7--------7--------11-------11-------7--------7--------7--------7--
A|--------------------------------------------------------------------------------------------------------------
D|--5--5-----5--5-----5--5-----5--5-----0--0-----0--0-----0--0-----0--0-----9--9-----9--9-----5--5-----5--5-----

E|-----------
B|-----------
G|-----------
D|--------7--
A|-----------
D|--0--0-----

E|--------------------------------------------------------------------------------------------------------------
B|--------------------------------------------------------------------------------------------------------------
G|--------------------------------------------------------------------------------------------------------------
D|--------7--------7--------7--------9--------9--------9--------9--------9--------9--------9--------11-------7--
A|--------------------------------------------------------------------------------------------------------------
D|--0--0-----0--0-----0--0-----5--5-----5--5-----5--5-----5--5-----5--5-----5--5-----5--5-----7--7-----0--0-----

E|-----------------------------------------------------------------------------------------------------
B|-----------------------------------------------------------------------------------------------------
G|-----------------------------------------------------------------------------------------------------
D|--------7--------11-------11-------7--------7--------11-------11-------5--------5--------5--------5--
A|-----------------------------------------------------------------------------------------------------
D|--0--0-----0--0-----0--0-----0--0-----0--0-----0--0-----0--0-----5--5-----5--5-----5--5-----5--5-----

E|--------------------------------------------------------------------------------------------------------------
B|--------------------------------------------------------------------------------------------------------------
G|--------------------------------------------------------------------------------------------------------------
D|--------7--------7--------11-------11-------7--------7--------11-------11-------7--------7--------11-------11-
A|--------------------------------------------------------------------------------------------------------------
D|--0--0-----0--0-----0--0-----0--0-----0--0-----0--0-----0--0-----0--0-----0--0-----0--0-----0--0-----0--0-----

E|--------------------------------------------------------------------------------------------------------------
B|--------------------------------------------------------------------------------------------------------------
G|--------------------------------------------------------------------------------------------------------------
D|--------12-------12-------9--------9--------7--------7--------7--------7--------9--------9--------9--------9--
A|--------------------------------------------------------------------------------------------------------------
D|--9--9-----9--9-----7--7-----7--7-----0--0-----0--0-----0--0-----0--0-----9--9-----9--9-----9--9-----9--9-----

E|-----------------------------------------------------------------------------------------------------------------
B|-----------------------------------------------------------------------------------------------------------------
G|-----------------------------------------------------------------------------------------------------------------
D|--------9--------12-------7--------7-----------7--------7--------12-------12-------11-------9--------7--------9--
A|-----------------------------------------------------------------------------------------------------------------
D|--9--9-----11-11----0--0-----0--0--------11-11----11-11----9--9-----9--9-----7--7-----5--5-----0--0-----9--9-----

E|--------------------------------------------------------
B|--------------------------------------------------------
G|--------------------------------------------------------
D|--------9--------7--------7--------12-------11-------9--
A|--------------------------------------------------------
D|--9--9-----7--7-----7--7-----9--9-----7--7-----5--5-----

E|--
B|--
G|--
D|--
A|--
D|--

E|--
B|--
G|--
D|--
A|--
D|--

E|--
B|--
G|--
D|--
A|--
D|--

Paste any tab in acousterr's tab maker and we'll play it !!!
Now supports capo and sound effects for vibrato/pull-off/hammer/bends/mutes etc !!! Checkout help section
tabs and chords, guitar tabs, music contests, music covers, songsterr, reverbnation, renditions, tabulature, bollywood chords, ultimate guitar, yousician, guitar lessons, torrins, fender, gibson, acoustic guitar, electric guitar, youtube covers, gootar, guitar tuner, A-Z tabs, 911 tabs