Guitar Tabs for Just The Way You Are

(/) Slide Up  (\) Slide Down  (h) Hammer On  (p) Pull Off  (b) Bend (r) Release (v) Vibrato (x) Muted

Tabs for Song : 

Song lyrics here
E|--------------------------------------------------------------------------------------------------
B|--------------3-----------------------3-----------------------3-----------------------3-----------
G|-----2-----2-----2-----2-----2-----2-----2-----2-----2-----2-----2-----2-----2-----2-----2-----2--
D|--0-----0-----------0-----0-----0-----------0-----------0-----------0-----------0-----------0-----
A|--------------------------------------------------2-----------------------2-----------------------
E|--------------------------------------------------------------------------------------------------

E|--------------------------------------------------------------------------------------------------
B|--------------3-----------------------3-----------------------3-----------------------3-----------
G|-----2-----2-----2-----2-----2-----2-----2-----2-----2-----2-----2-----2-----2-----2-----2-----2--
D|--------0-----------0-----------0-----------0-----0-----0-----------0-----0-----0-----------0-----
A|--------------------------------------------------------------------------------------------------
E|--3-----------------------3-----------------------------------------------------------------------

E|--
B|--
G|--
D|--
A|--
E|--

E|--
B|--
G|--
D|--
A|--
E|--

 
E|--
B|--
G|--
D|--
A|--
E|--

Paste any tab in acousterr's tab maker and we'll play it !!!
Now supports capo and sound effects for vibrato/pull-off/hammer/bends/mutes etc !!! Checkout help section
tabs and chords, guitar tabs, music transcription, music technology, deep learning, music information retrieval, transcribe into tabs & chords, chordify, music renditions, songsterr, reverbnation, tabulature, bollywood chords, ultimate guitar, yousician, guitar lessons, acoustic guitar, electric guitar, guitar tuner, 911 tabs