Just Like This - Mike Park - Bass Tabs

Track 2
    4 
                                                                                                                                                                                                                                                                                                                                                                                                                                                                                                                                                                                                 
G|-------------------------------------------------|
D|-------------------------------------------------|
A|--------------7--7--7--7--8--8--8--8-------------|
E|--8--8--8--8--------------------------8--8--8--8-|

    4 4 
                                                                                                                                                                                                                                                                                                                                                                                                                                                                                                                                                                                                                                                                                                                                                                                                                                                                                                                                                                                                                                                                                                                                                                                              
G|-------------------------------------------|-----------------------------------------------|
D|-------------------------------------------|-----------------------------------------------|
A|-------------------------------------------|------------7--7--7--7--8--8--8--8-------------|
E|--8--8--8--8--3--3--3--3--1--1--1--1-------|8--8--8--8--------------------------8--8--8--8-|

    4 4 
                                                                                                                                                                                                                                                                                                                                                                                                                                                                                                                                                                                                                                                                                                                                                                                                                                                                                                                                                                                                                                                                                                                                                                                              
G|-------------------------------------------|-----------------------------------------------|
D|-------------------------------------------|-----------------------------------------------|
A|-------------------------------------------|-----------------------------------------------|
E|--8--8--8--8--3--3--3--3--1--1--1--1-------|5--5--5--5--5--5--5--5--8--8--8--8--8--8--8--8-|

    
                                                                                                                                                                                                                                                                                                                                                                                                                                                                                                                                                                                                                                                                                                                                                                                                                                                                                                                                                                                                                                                                                                                                                                                              
G|-------------------------------------------------|-----------------------------------------------|
D|-------------------------------------------------|-----------------------------------------------|
A|-------------------------------------------------|-----------------------------------------------|
E|--5--5--5--5--5--5--5--5--8--8--8--8--3--3--3--3-|5--5--5--5--5--5--5--5--8--8--8--8--8--8--8--8-|

    
                                                                                                                                                                                                                                                                                                                                                                                                                                                                                                                                                                                                                                                                                                                                                                                                                                                                                                                                                                                                                                                                                                                                                                                              
G|-------------------------------------------------|-----------------------|
D|-------------------------------------------------|-----------------------|
A|-------------------------------------------------|-----------------------|
E|--5--5--5--5--5--5--5--5--8--8--8--8--8--8--8--8-|3----------------------|

    
                                                                                                                                                                                                                                                                                                                                                                                                                                                                                                                                                                                                 
G|-------------------------|
D|-------------------------|
A|-------------------------|
E|--3----------------------|

    
                                                                                                                                                                                                                                                                                                                                                                                                                                                                                                                                                                                                 
G|-------------------------------------------------|
D|-------------------------------------------------|
A|--------------7--7--7--7--8--8--8--8-------------|
E|--8--8--8--8--------------------------8--8--8--8-|

    4 4 
                                                                                                                                                                                                                                                                                                                                                                                                                                                                                                                                                                                                                                                                                                                                                                                                                                                                                                                                                                                                                                                                                                                                                                                              
G|-------------------------------------------------|-----------------------------------------------|
D|-------------------------------------------------|-----------------------------------------------|
A|-------------------------------------------------|-----------------------------------------------|
E|--5--5--5--5--5--5--5--5--8--8--8--8--8--8--8--8-|5--5--5--5--5--5--5--5--8--8--8--8--3--3--3--3-|

    
                                                                                                                                                                                                                                                                                                                                                                                                                                                                                                                                                                                                                                                                                                                                                                                                                                                                                                                                                                                                                                                                                                                                                                                              
G|-------------------------------------------------|-----------------------------------------------|
D|-------------------------------------------------|-----------------------------------------------|
A|-------------------------------------------------|-----------------------------------------------|
E|--5--5--5--5--5--5--5--5--8--8--8--8--8--8--8--8-|5--5--5--5--5--5--5--5--8--8--8--8--8--8--8--8-|

    
                                                                                                                                                                                                                                                                                                                                                                                                                                                                                                                                                                                                                                                                                                                                                                                                                                                                                                                                                                                                                                                                                                                                                                                              
G|-------------------------|-----------------------|
D|-------------------------|-----------------------|
A|-------------------------|-----------------------|
E|--3----------------------|3----------------------|

    
                                                                                                                                                                                                                                                                                                                                                                                                                                                                                                                                                                                                 
G|-------------------------------------------------|
D|-------------------------------------------------|
A|-------------------------------------------------|
E|--5--5--5--5--5--5--5--5--0--0--0--0--0--0--0--0-|

    
                                                                                                                                                                                                                                                                                                                                                                                                                                                                                                                                                                                                 
G|-------------------------------------------------|
D|-------------------------------------------------|
A|-------------------------------------------------|
E|--1--1--1--1--1--1--1--1--3--3--3--3--3--3--3--3-|

    
                                                                                                                                                                                                                                                                                                                                                                                                                                                                                                                                                                                                                                                                                                                                                                                                                                                                                                                                                                                                                                                                                                                                                                                              
G|-------------------------------------------------|-----------------------------------------------|
D|-------------------------------------------------|-----------------------------------------------|
A|-----------------------10----------------------10|---------------------10------------------------|
E|--8--7--8--7--8--7--8-----8--7--8--7--8--7--8----|8--7--8--7--8--7--8-----8--7--8--7--8--7--8--7-|

    
                                                                                                                                                                                                                                                                                                                                                                                                                                                                                                                                                                                                                                                                                                                                                                                                                                                                                                                                                                                                                                                                                                                                                                                              
G|-------------------------------------------------|-----------------------------------|
D|-------------------------------------------------|-----------------------------------|
A|-----------------------10----------------------10|---------------------10------------|
E|--8--7--8--7--8--7--8-----8--7--8--7--8--7--8----|8--7--8--7--8--7--8----------------|

    
                                                                                                                                                                                                                                                                                                                                                                                                                                                                                                                                                                                                 
G|-------------------------------------------------|
D|-------------------------------------------------|
A|-------------------------------------------------|
E|--5--5--5--5--5--5--5--5--8--8--8--8--8--8--8--8-|

    
                                                                                                                                                                                                                                                                                                                                                                                                                                                                                                                                                                                                                                                                                                                                                                                                                                                                                                                                                                                                                                                                                                                                                                                              
G|-------------------------------------------------|-----------------------------------------------|
D|-------------------------------------------------|-----------------------------------------------|
A|-------------------------------------------------|-----------------------------------------------|
E|--5--5--5--5--5--5--5--5--8--8--8--8--3--3--3--3-|5--5--5--5--5--5--5--5--8--8--8--8--8--8--8--8-|

    
                                                                                                                                                                                                                                                                                                                                                                                                                                                                                                                                                                                                                                                                                                                                                                                                                                                                                                                                                                                                                                                                                                                                                                                              
G|-------------------------------------------------|-----------------------|
D|-------------------------------------------------|-----------------------|
A|-------------------------------------------------|-----------------------|
E|--5--5--5--5--5--5--5--5--8--8--8--8--8--8--8--8-|3----------------------|

    
                                                                                                                                                                                                                                                                                                                                                                                                                                                                                                                                                                                                 
G|-------------------------|
D|-------------------------|
A|-------------------------|
E|--3----------------------|

    
                                                                                                                                                                                                                                                                                                                                                                                                                                                                                                                                                                                                 
G|-------------------------------------------------|
D|-------------------------------------------------|
A|--------------7--7--7--7--8--8--8--8-------------|
E|--8--8--8--8--------------------------8--8--8--8-|

    
                                                                                                                                                                                                                                                                                                                                                                                                                                                                                                                                                                                                                                                                                                                                                                                                                                                                                                                                                                                                                                                                                                                                                                                              
G|-------------------------------------------------|-----------------------------------------------|
D|-------------------------------------------------|-----------------------------------------------|
A|--------------7--7--7--7--8--8--8--8-------------|------------7--7--7--7--8--8--8--8-------------|
E|--8--8--8--8--------------------------8--8--8--8-|8--8--8--8--------------------------8--8--8--8-|

About Just like Heaven (film) : The film is based on the 1999 French novel If Only It Were True (Et si c'├ętait vrai...) by Marc Levy . Reese Witherspoon, Mark Ruffalo and Steven Spielberg obtained the rights to produce the film from the book . The film was released in the United States and Canada Elizabeth Masterson is a young emergency medicine physician in San Francisco . Three months later, David Abbott (Mark Ruffalo) moves into the apartment that had been Elizabeth's .

tabs and chords, guitar tabs, music transcription, music technology, deep learning, music information retrieval, transcribe into tabs & chords, chordify, music renditions, songsterr, reverbnation, tabulature, bollywood chords, ultimate guitar, yousician, guitar lessons, acoustic guitar, electric guitar, guitar tuner, 911 tabs