Guitar Tabs for Jumping Jack Claude (by Brice Glp)

(/) Slide Up  (\) Slide Down  (h) Hammer On  (p) Pull Off  (b) Bend (r) Release (v) Vibrato (x) Muted

Tabs for Song : 

Intro
E|--------------------------------------------------------------------------------
B|--------------------------------------------------------------------------------
G|------------------------------------------------------------2b2--0--2--0--------
D|--------------0--2--0-----0-----------------------0--2--0-----------------2--2--
A|--------0--2-----------2--------------------0--2--------------------------------
E|--0--0-----------------------3--0---3b0--0--------------------------------------

E|-----------------------------------3--3--3--x--0--0--0--0-----0--------------------------------------
B|-----------------------------------3--3--3--x--2--2--2--2-----0--------3--5--3-----3-----------------
G|-----------------------------------4--4--4--x--2--2--2--2-----1---2\4-----------4------4\2--0--2--0--
D|--------0--2--0-----0--------------5--5--5--x--2--2--2--2-----2--------------------------------------
A|--0--2-----------2-----2--0--------5--5--5--x--0--0--0--0-----2--------------------------------------
E|-----------------------------3--0--3--3--3--x--------------0--0--------------------------------------

E|-----0-----------------x--x--------x-----0--------------------------------------3--3--3--x--0--0--0--0--
B|-----0--------3--5--3--x--x--12-12-x-----0--------3--5--3-----3-----------------3--3--3--x--2--2--2--2--
G|-----1---2\4-----------x--x--12-12-x-----1---2\4-----------4------4\2--0--2--0--4--4--4--x--2--2--2--2--
D|-----2-----------------x--x--------x-----2--------------------------------------5--5--5--x--2--2--2--2--
A|-----2-----------------x--x--12-12-x-----2--------------------------------------5--5--5--x--0--0--0--0--
E|--0--0-----------------x--x--------x--0--0--------------------------------------3--3--3--x--------------

Verse (repeat x2)
E|--0--0--0--0--0--0--0--0--------------------------0--0--0--0--0--0--0--0--------------------------
B|--0--0--0--0--0--0--0--0--------------------------0--0--0--0--0--0--0--0--------------------------
G|--1--1--1--1--1--1--1--1--4--4--5--4--6--6--7--6--1--1--1--1--1--1--1--1--4--4--5--4--6--6--7--6--
D|--2--2--2--2--2--2--2--2--5--5--5--5--7--7--7--7--2--2--2--2--2--2--2--2--5--5--5--5--7--7--7--7--
A|--2--2--2--2--2--2--2--2--5--5--5--5--7--7--7--7--2--2--2--2--2--2--2--2--5--5--5--5--7--7--7--7--
E|--0--0--0--0--0--0--0--0--0--0--0--0--0--0--0--0--0--0--0--0--0--0--0--0--0--0--0--0--0--0--0--0--

Chorus 
E|-----0-----------------------------------------0-----------------x--x--------------0-----------------------
B|-----0--------3--5--3-----3--------------------0--------3--5--3--x--x--12-12-12----0--------3--5--3-----3--
G|-----1---2\4-----------4------4/2--0--2--0-----1---2\4-----------x--x--12-12-12----1---2\4-----------4-----
D|-----2-----------------------------------------2-----------------x--x--------------2-----------------------
A|-----2-----------------------------------------2-----------------x--x--12-12-12----2-----------------------
E|--0--0--------------------------------------0--0-----------------x--x-----------0--0-----------------------

E|-----------------3--3--3--x--0--0--0--0--
B|-----------------3--3--3--x--2--2--2--2--
G|---4/2--0--2--0--4--4--4--x--2--2--2--2--
D|-----------------5--5--5--x--2--2--2--2--
A|-----------------5--5--5--x--0--0--0--0--
E|-----------------3--3--3--x--------------
Verse (repeat x2)
E|--0--0--0--0--0--0--0--0--------------------------0--0--0--0--0--0--0--0--------------------------
B|--0--0--0--0--0--0--0--0--------------------------0--0--0--0--0--0--0--0--------------------------
G|--1--1--2--1--1--1--1--1--4--4--5--4--6--6--7--6--1--1--2--1--1--1--1--1--4--4--5--4--6--6--7--6--
D|--2--2--2--2--2--2--2--2--5--5--5--5--7--7--7--7--2--2--2--2--2--2--2--2--5--5--5--5--7--7--7--7--
A|--2--2--2--2--2--2--2--2--5--5--5--5--7--7--7--7--2--2--2--2--2--2--2--2--5--5--5--5--7--7--7--7--
E|--0--0--0--0--0--0--0--0--0--0--0--0--0--0--0--0--0--0--0--0--0--0--0--0--0--0--0--0--0--0--0--0---

SOLO (E - G - A) repeat as long as your fingers can handle it! SHOW THEM WHO YOU ARE !!

Chorus (repeat x2)

E|-----0-----------------------------------------0-----------------x--x--------------0-----------------------
B|-----0--------3--5--3-----3--------------------0--------3--5--3--x--x--12-12-12----0--------3--5--3-----3--
G|-----1---2\4-----------4------4/2--0--2--0-----1---2\4-----------x--x--12-12-12----1---2\4-----------4-----
D|-----2-----------------------------------------2-----------------x--x--------------2-----------------------
A|-----2-----------------------------------------2-----------------x--x--12-12-12----2-----------------------
E|--0--0--------------------------------------0--0-----------------x--x-----------0--0-----------------------
                                           
E|-----------------3--3--3--x--0--0--0--0--
B|-----------------3--3--3--x--2--2--2--2--
G|---4/2--0--2--0--4--4--4--x--2--2--2--2--
D|-----------------5--5--5--x--2--2--2--2--
A|-----------------5--5--5--x--0--0--0--0--
E|-----------------3--3--3--x--------------
Ending                                                                                  Long note
E|--3--3--3--x--0--0--0--0--0--3--3--3--x--0--0--0--0--0--0--0--0--0--------------------0--
B|--3--3--3--x--2--2--2--3--2--3--3--3--x--2--2--2--2--0--0--0--0--0--------------------0--
G|--4--4--4--x--2--2--2--2--2--4--4--4--x--2--2--2--2--1--1--1--1--1--------0-----------1--
D|--5--5--5--x--2--2--2--2--2--5--5--5--x--2--2--2--2--2--2--2--2--2--0--2-----2--0--2--2--
A|--5--5--5--x--0--0--0--0--0--5--5--5--x--0--0--0--0--2--2--2--2--2--------------------2--
E|--3--3--3--x-----------------3--3--3--x--------------0--0--0--0--0--------------------0--



tabs and chords, guitar tabs, music transcription, music technology, deep learning, music information retrieval, transcribe into tabs & chords, chordify, music renditions, songsterr, reverbnation, tabulature, bollywood chords, ultimate guitar, yousician, guitar lessons, acoustic guitar, electric guitar, guitar tuner, 911 tabs