Guitar Tabs for Josh Woodward – Nothing In The Dark

(/) Slide Up  (\) Slide Down  (h) Hammer On  (p) Pull Off  (b) Bend (r) Release (v) Vibrato (x) Muted

Tabs & Chords
BPM : 93.0
Check Track 2 for Chord Positions 

       Fm                                                                                        
E|--------------------------------------------------------------------------------8--8--8-----8--
B|-----------------9--------------------9-----------------------9-----9--------9-----------------
G|-----------------------------------10----10----------------10-------------10-------------------
D|--------------10----------------10-------------10----10----------------10----------------------
A|--8--8-----8--------8-----8--------------------------------------------------------------------
E|-----------------------------------------------------------------------------------------------

                                                                                                 
E|-----8-----8--8-----------------------8-----------------------------------------------8-----8--
B|--9-----9-----------9--------------------------9-----9-----9--------------9-----9--------------
G|--------------------------------------------10----------------------10-------------------------
D|-----------------------------------------10-------------------10-------------------------------
A|-----------------9-----8--11-8--8--8-----------------------------------------------------------
E|-----------------------------------------------------------------------------------------------

                                                             A#          Fm                
E|-----8-----8--8--------------------------8-----------------------------8-----8-----------
B|--9-----9--------------------9-----9--------------------------0--------------------------
G|--------------------------------------------------------------------------------------10-
D|-----------------------------------------------------8-----8-----------------------10----
A|-----------------------9--8--------------------8--11-------------11----------------------
E|--------------------11-------------------------------------------------------------------

Guitar Tabs for Josh Woodward – Nothing In The Dark






       Fm                                                                                        
E|-----1-----------------------------------------------------------------------------------------
B|-----1-----------------------------------------------------------------------------------------
G|-----1-----------------------------------------------------------------------------------------
D|-----3-----------------------------------------------------------------------------------------
A|-----3-----------------------------------------------------------------------------------------
E|-----1-----------------------------------------------------------------------------------------

                                                                                                 
E|-----------------------------------------------------------------------------------------------
B|-----------------------------------------------------------------------------------------------
G|-----------------------------------------------------------------------------------------------
D|-----------------------------------------------------------------------------------------------
A|-----------------------------------------------------------------------------------------------
E|-----------------------------------------------------------------------------------------------

                                                             A#          Fm                
E|-----------------------------------------------------------1-----------1-----------------
B|-----------------------------------------------------------3-----------1-----------------
G|-----------------------------------------------------------3-----------1-----------------
D|-----------------------------------------------------------3-----------3-----------------
A|-----------------------------------------------------------1-----------3-----------------
E|-----------------------------------------------------------------------1-----------------

tabs and chords, guitar tabs, music transcription, music technology, deep learning, music information retrieval, transcribe into tabs & chords, chordify, music renditions, songsterr, reverbnation, tabulature, bollywood chords, ultimate guitar, yousician, guitar lessons, acoustic guitar, electric guitar, guitar tuner, 911 tabs