Guitar Tabs for Joji - Slow Dancing In The Dark

Joji - SLOW DANCING IN THE DARK

CAPO in 3rd Fret

Intro 

    C                                               Am      
E|--------------0--3--7--7--7--3--------------------------------0--3--7--7--7--3--------------------
B|-----------1--------------------5--1-----------------------1--------------------5--1--------------
G|--------0-----------------------------0-----------------2-----------------------------2-----------
D|-----2-----------------------------------2-----2-----2-----------------------------------2-----2--
A|--3-----------------------------------------3-----0-----------------------------------------0-----
E|--------------------------------------------------------------------------------------------------
 
    Dm                                                 Em7                        E7
E|--------------1--------------------------1-----------------------0-----------------------------0--
B|--------3--------3-----3-----------3--------3-----3-----------------3-----------------------3-----
G|-----2-----2--------2-----2-----2-----2--------2--------------0--------0-----------------1--------
D|--0--------------------------0-----------------------------2--------------2-----------2-----------
A|--------------------------------------------------------2--------------------2-----2--------------
E|-----------------------------------------------------0--------------------------0-----------------

Verse

       I don't want a friend                I want my life in two                       Waiting to 
    C                                               Am      
E|--------------0--3--7--7--7--3--------------------------------0--3--7--7--7--3--------------------
B|-----------1--------------------5--1-----------------------1--------------------5--1--------------
G|--------0-----------------------------0-----------------2-----------------------------2-----------
D|-----2-----------------------------------2-----2-----2-----------------------------------2-----2--
A|--3-----------------------------------------3-----0-----------------------------------------0-----
E|--------------------------------------------------------------------------------------------------

get there                              Waiting for you
    Dm                                                 Em7                        E7
E|--------------1--------------------------1-----------------------0-----------------------------0--
B|--------3--------3-----3-----------3--------3-----3-----------------3-----------------------3-----
G|-----2-----2--------2-----2-----2-----2--------2--------------0--------0-----------------1--------
D|--0--------------------------0-----------------------------2--------------2-----------2-----------
A|--------------------------------------------------------2--------------------2-----2--------------
E|-----------------------------------------------------0--------------------------0-----------------

                    When I'm around slow dancing in the dark         Don't follow me, you'll end up in my arms
    C                                               Am      
E|--------------0--3--7--7--7--3--------------------------------0--3--7--7--7--3--------------------
B|-----------1--------------------5--1-----------------------1--------------------5--1--------------
G|--------0-----------------------------0-----------------2-----------------------------2-----------
D|-----2-----------------------------------2-----2-----2-----------------------------------2-----2--
A|--3-----------------------------------------3-----0-----------------------------------------0-----
E|--------------------------------------------------------------------------------------------------

in my arms. You done made up your mind, I don't need no more signs     Can you?  Can you?
       Dm                                                 Em7                        E7
E|-----------------1--------------------------1-----------------------0-----------------------------0--
B|-----------3--------3-----3-----------3--------3-----3-----------------3-----------------------3-----
G|--------2-----2--------2-----2-----2-----2--------2--------------0--------0-----------------1--------
D|-----0--------------------------0-----------------------------2--------------2-----------2-----------
A|-----------------------------------------------------------2--------------------2-----2--------------
E|--------------------------------------------------------0--------------------------0-----------------

Chorus

      Give me reasons we should be complete, you should be with him, I can't compete
    C                                   F                                      C
E|--0-----------------------------------1--------------------------------------0--
B|--1-----------------------------------1--------------------------------------1--
G|--0-----------------------------------2--------------------------------------0--
D|--2-----------------------------------3--------------------------------------2--
A|--3-----------------------------------3--------------------------------------3--
E|--------------------------------------1-----------------------------------------
 
  You looked at me like I was someone else, oh well. Can't you see?
                                        F                       C
E|--------------------------------------1-----------------------0--
B|--------------------------------------1-----------------------1--
G|--------------------------------------2-----------------------0--
D|--------------------------------------3-----------------------2--
A|--------------------------------------3-----------------------3--
E|--------------------------------------1--------------------------

    I don't wanna slow dance...  In the dark...    ...dark.
                   F                    C              F
E|-----------------1--------------------0--------------1--
B|-----------------1--------------------1--------------1--
G|-----------------2--------------------0--------------2--
D|-----------------3--------------------2--------------3--
A|-----------------3--------------------3--------------3--
E|-----------------1-----------------------------------1--

2nd Verse


       When you gotta run              just hear my voice in you                     Shutting me 
    C                                               Am      
E|--------------0--3--7--7--7--3--------------------------------0--3--7--7--7--3--------------------
B|-----------1--------------------5--1-----------------------1--------------------5--1--------------
G|--------0-----------------------------0-----------------2-----------------------------2-----------
D|-----2-----------------------------------2-----2-----2-----------------------------------2-----2--
A|--3-----------------------------------------3-----0-----------------------------------------0-----
E|--------------------------------------------------------------------------------------------------

out                                    Doing so great                         you...
    Dm                                                 Em7                        E7
E|--------------1--------------------------1-----------------------0-----------------------------0--
B|--------3--------3-----3-----------3--------3-----3-----------------3-----------------------3-----
G|-----2-----2--------2-----2-----2-----2--------2--------------0--------0-----------------1--------
D|--0--------------------------0-----------------------------2--------------2-----------2-----------
A|--------------------------------------------------------2--------------------2-----2--------------
E|-----------------------------------------------------0--------------------------0-----------------

                  Used to be the one to hold you when you fall                 I don't fuck with your
   A                                                 A   
E|--------------0--3--5--3--0-----------------------------------0--3--5--3--0-----------------------
B|-----------2-----------------2-----------------------------2-----------------2--------------------
G|--------2-----------------------2-----------2-----------2-----------------------2-----------2-----
D|-----2-----------------------------2-----2-----2-----2-----------------------------2-----2-----2--
A|--0-----------------------------------0-----------0-----------------------------------0-----------
E|--------------------------------------------------------------------------------------------------

tone.           I don't wanna go home,     can it be one night?    Can you?  Can you?
       Dm                                                 Em7                        E7
E|-----------------1--------------------------1-----------------------0-----------------------------0--
B|-----------3--------3-----3-----------3--------3-----3-----------------3-----------------------3-----
G|--------2-----2--------2-----2-----2-----2--------2--------------0--------0-----------------1--------
D|-----0--------------------------0-----------------------------2--------------2-----------2-----------
A|-----------------------------------------------------------2--------------------2-----2--------------
E|--------------------------------------------------------0--------------------------0-----------------

2nd Chorus

      Give me reasons we should be complete, you should be with him, I can't compete
    C                                   F                                      C
E|--0-----------------------------------1--------------------------------------0--
B|--1-----------------------------------1--------------------------------------1--
G|--0-----------------------------------2--------------------------------------0--
D|--2-----------------------------------3--------------------------------------2--
A|--3-----------------------------------3--------------------------------------3--
E|--------------------------------------1-----------------------------------------
 
  You looked at me like I was someone else, oh well. Can't you see?
                                        F                       C
E|--------------------------------------1-----------------------0--
B|--------------------------------------1-----------------------1--
G|--------------------------------------2-----------------------0--
D|--------------------------------------3-----------------------2--
A|--------------------------------------3-----------------------3--
E|--------------------------------------1--------------------------

    I don't wanna slow dance...  In the dark...    ...dark.
                   F                    C              F
E|-----------------1--------------------0--------------1--
B|-----------------1--------------------1--------------1--
G|-----------------2--------------------0--------------2--
D|-----------------3--------------------2--------------3--
A|-----------------3--------------------3--------------3--
E|-----------------1-----------------------------------1--

tabs and chords, guitar tabs, music transcription, music technology, deep learning, music information retrieval, transcribe into tabs & chords, chordify, music renditions, songsterr, reverbnation, tabulature, bollywood chords, ultimate guitar, yousician, guitar lessons, acoustic guitar, electric guitar, guitar tuner, 911 tabs