Joji - Gimme Love ( Guitar Solo For Part 2) - Guitar Tabs

(/) Slide Up  (\) Slide Down  (h) Hammer On  (p) Pull Off  (b) Bend (r) Release (v) Vibrato (x) Muted

Tabs for Song : 
BPM : 200

Song lyrics here 
E|-----------------------------------------------------------------------------------------
B|-----------------------------------------------------------------------------------------
G|--12b14----------12b14r12-------10----12b14----------12b14r12-------10----12b14----------
D|-----------------------------------------------------------------------------------------
A|-----------------------------------------------------------------------------------------
E|-----------------------------------------------------------------------------------------

E|--------------------------------------------------------------------------
B|--------------------------------------13----------14/---------16----------
G|--12b14r12-------10----14b15----------------------------------------------
D|--------------------------------------------------------------------------
A|--------------------------------------------------------------------------
E|--------------------------------------------------------------------------

E|--------------------------------------------------------------------------------------------------------------
B|--------------------------------------------------------------------------------------11----13----------------
G|--12/14-14----14----14----12----10----14-12----10-------------12/14-14----14----14----------------14----------
D|-----------------------------------------------------10-------------------------------------------------------
A|--------------------------------------------------------------------------------------------------------------
E|--------------------------------------------------------------------------------------------------------------

 

E|--------------------------------------------------------------------------------------------------
B|--------------------------------------------------------------11----------13-------14-------16----
G|--12/14-14-14----14----12----10----14-12----10----14-------14-------------------------------------
D|--------------------------------------------------------------------------------------------------
A|--------------------------------------------------------------------------------------------------
E|--------------------------------------------------------------------------------------------------

E|-----------------------------------------------------------
B|--16b18----------18b20r18-------17----------18b20r18-------
G|-----------------------------------------------------------
D|-----------------------------------------------------------
A|-----------------------------------------------------------
E|-----------------------------------------------------------
last note is a bend from 23 to the 24 on the high e string
E|--18-17-15-------------------------------13-15-17/18-------20----21----
B|-----------18-17-15-------------13-15-17-------------------------------
G|--------------------15-------------------------------------------------
D|-----------------------------------------------------------------------
A|-----------------------------------------------------------------------
E|-----------------------------------------------------------------------

About Gimme Love (Joji song) : Joji's second studio album Nectar was released on 16 April 2020 through 88rising . It is the third single from Jo The first half, produced by Joji, is described as a "sticky pop anthem with haunting vocals" The second half is produced by B─ôkon & The Donuts It was released in 2020. It was released as part of album Nectar. The genre is pop. The track was release in 2020. Gimme Love (Joji song) has a significant contribution from artist(s) Joji. It is related to the album(s) - Nectar.

About Nectar (Joji album) : Joji is the upcoming second studio album by Japanese singer-songwriter Joji . It The album was announced on 16 April 2020 with the single "Gimme Love" It was originally set to be released on 10 July 2020 due to the COVID-19 pandemic . Joji announced the album Credits adapted from Apple Music. The album will contain 18 tracks in total. It had a contribution from notable artists like Joji. It had an affiliation to bands - Nectar.

tabs and chords, guitar tabs, music transcription, music technology, deep learning, music information retrieval, transcribe into tabs & chords, chordify, music renditions, songsterr, reverbnation, tabulature, bollywood chords, ultimate guitar, yousician, guitar lessons, acoustic guitar, electric guitar, guitar tuner, 911 tabs