Bass Tabs for Johnny Rivers - Secret Agent Man

Johnny Rivers - Secret Agent Man

Intro
G|--------------------
D|--------------------  4x
A|--7-----------5--7--
E|-----7--7--7--------

Verse
G|-----------------------------------
D|--------------------7--------------
A|--7-----------5--------7--7--7--5--
E|-----7--7--7-----------------------

G|-----------------
D|----------------- 3x
A|--7-----------5--
E|-----7--7--7-----

G|--------------------------------
D|--9-----------7--9-----------7--
A|-----9--9--9--------9--9--9-----
E|--------------------------------

G|--------------------------------
D|--------------------------------
A|--7-----------5--7-----------5--
E|-----7--7--7--------7--7--7-----

G|--------------------------------
D|--7-----------5--7-----------5--
A|-----7--7--7--------7--7--7-----
E|--------------------------------

G|-----------------------------------
D|--------------------7--------------
A|--7-----------5--------7--7--7--5--
E|-----7--7--7-----------------------

G|--------------------
D|--------------------
A|--7-----------5--7--
E|-----7--7--7--------

Chorus
G|-----------------9-----9-----------------9-----9--
D|-----9-----9-- ---------------9-----9-------------
A|--------------7-----7-----------------7-----7-----
E|--7-----7-----------------7-----7-----------------

G|--------------------------------------
D|-----10----10----9-----9-----9-----9--
A|--------------------------------------
E|--8-----8-----7-----7-----7-----7-----

tabs and chords, guitar tabs, music transcription, music technology, deep learning, music information retrieval, transcribe into tabs & chords, chordify, music renditions, songsterr, reverbnation, tabulature, bollywood chords, ultimate guitar, yousician, guitar lessons, acoustic guitar, electric guitar, guitar tuner, 911 tabs