Bass Tabs for John Lennon - Rip It Up / Ready Teddy

John Lennon - Rip It Up / Ready Teddy

G|--------------------------------------------
D|--------------------------------------------
A|--------------------------------------------
E|--0-----------0-----------0--------------0--

G|-----------------------------------------------------------------
D|--------------------4--------------------------------------------  2x
A|--------4-----7--------7--4-----------------2-----4-----2--------
E|--5-----------------------------0-----4-----------------------4--
                                     
G|--------------------
D|--------------------
A|--------6-----9-----
E|--7-----------------

G|-----------------------------
D|-----------------------------
A|--------------2-----4--2-----
E|--0-----4-----------------4--

G|-----------------------------------------
D|-----------------------------------------
A|--------2--4--2-----------2--4--2--------
E|--0--4-----------4--0--4-----------4--0--

G|--------------------------------------
D|-----------4--------------------------
A|-----4--7-----7--4--------2--4--2-----
E|--5-----------------0--4-----------4--

G|--------------------------------------
D|-----------6--------------------------
A|-----6--9-----9--6--------2--4--2-----
E|--7-----------------0--4-----------4--

Last Two Verses
G|-----------------------------------------------------------
D|-----------4-----------------------------------------------
A|-----4--7-----7--4--------2--4--2--------6--9--6--9--6-----
E|--5-----------------0--4-----------4--7-----------------0--
tabs and chords, guitar tabs, music transcription, music technology, deep learning, music information retrieval, transcribe into tabs & chords, chordify, music renditions, songsterr, reverbnation, tabulature, bollywood chords, ultimate guitar, yousician, guitar lessons, acoustic guitar, electric guitar, guitar tuner, 911 tabs