Guitar Tabs for Jne - Save Me

Tabs (Leads) for JNE - Save Me
 
Life comes in ways It has highs and lows
E|-----------------1--------------------1--
B|--2-----4---4/6--------4--2--2---4/6-----
G|-----------------------------------------
D|-----------------------------------------
A|-----------------------------------------
E|-----------------------------------------

It comes crashing down And it hits hard below
E|--------------1-----------------------------
B|--4--2--2--4-----4-----2--4--4--4--2--------
G|--------------------------------------3-----
D|--------------------------------------------
A|--------------------------------------------
E|--------------------------------------------

There's good and the bad But sometimes it's too dark to see the light
E|-----------------1-----------------1--1--
B|--2--2--4---4/6--------4--2--2--4--------
G|-----------------------------------------
D|-----------------------------------------
A|-----------------------------------------
E|-----------------------------------------

It shines back to who we are
E|-----1-----------------
B|--4-----4--4--2--------
G|-----------------3-----
D|-----------------------
A|-----------------------
E|-----------------------


And pain it always comes around
E|-----4--1--1-----------1--1--
B|--2-----------4--2--4--------
G|-----------------------------
D|-----------------------------
A|-----------------------------
E|-----------------------------

But the love we have has the loudest sound
E|-----4--1--1-----------1--1--
B|--2-----------4--2--4--------
G|-----------------------------
D|-----------------------------
A|-----------------------------
E|-----------------------------

And I don't know where we're going
E|--------------1--1--------
B|--2--2--2--4--------4--4--
G|--------------------------
D|--------------------------
A|--------------------------
E|--------------------------


But as long as I am with you, I will be just fine
E|-----------------------4--1------4p6--------1--
B|--2--2---2/4--4--4--2-----------------4--4-----
G|-----------------------------------------------
D|-----------------------------------------------
A|-----------------------------------------------
E|-----------------------------------------------


You are my light on the dark side
E|--------1--1--------------------
B|--2--4---------4\2---2/4--2-----
G|-----------------------------3--
D|--------------------------------
A|--------------------------------
E|--------------------------------


And anytime it gets too hard and I feel like I've gone too far
E|--------1--1--4--1--------1--1--4--1--------
B|--2--2--------------4--2--------------4--2--
G|--------------------------------------------
D|--------------------------------------------
A|--------------------------------------------
E|--------------------------------------------

You are right there waiting patiently
E|--------1--1--1--4--1-----1-----
B|--4--2-----------------4--------
G|--------------------------------
D|--------------------------------
A|--------------------------------
E|--------------------------------

To save me
E|------1/2--1--
B|--2-----------
G|--------------
D|--------------
A|--------------
E|--------------
tabs and chords, guitar tabs, music contests, music covers, songsterr, reverbnation, renditions, tabulature, bollywood chords, ultimate guitar, yousician, guitar lessons, torrins, fender, gibson, acoustic guitar, electric guitar, youtube covers, gootar, guitar tuner, A-Z tabs, 911 tabs