Guitar Tabs for Jingle Bells Tabs

(/) Slide Up  (\) Slide Down  (h) Hammer On  (p) Pull Off  (b) Bend (r) Release (v) Vibrato

Tabs for Song : Jingle Bells Guitar Tabs

jingle bell jingle bell, jingle all the way
E|--0--0--0-----0--0--0--0--3--------0-----
B|-----------------------------1--3--------
G|-----------------------------------------
D|-----------------------------------------
A|-----------------------------------------
E|-----------------------------------------

oh what fun it is to ride, in a one horse open sleigh
E|--1--1--1--1--1--0--0--0--0--------0-----3-----
B|-----------------------------3--3-----3--------
G|-----------------------------------------------
D|-----------------------------------------------
A|-----------------------------------------------
E|-----------------------------------------------

Dashing through the snow
E|-----0-----------
B|--------3--1-----
G|--0-----------0--
D|-----------------
A|-----------------
E|-----------------


In a one-horse open sleigh
E|-----------0-----------
B|--------------3--1-----
G|--0--0--0-----------2--
D|-----------------------
A|-----------------------
E|-----------------------


O'er the fields we go
E|-----1--0--------
B|-----------3--0--
G|--2--------------
D|-----------------
A|-----------------
E|-----------------


Laughing all the way
E|--3--3--0--------
B|-----------3--1--
G|-----------------
D|-----------------
A|-----------------
E|-----------------
tabs and chords, guitar tabs, music contests, music covers, songsterr, reverbnation, renditions, tabulature, bollywood chords, ultimate guitar, yousician, guitar lessons, torrins, fender, gibson, acoustic guitar, electric guitar, youtube covers, gootar, guitar tuner, A-Z tabs, 911 tabs