Guitar Tabs for Jingle Bell

(/) Slide Up  (\) Slide Down  (h) Hammer On  (p) Pull Off  (b) Bend (r) Release (v) Vibrato (x) Muted

Tabs for Song : 
BPM : 200

Dashing through the snow . In a one horse open sleigh.
E|--------------------------------------
B|-----5--------------------5-----------
G|--------7--5-----------------7--5-----
D|--5-----------5--5--5--5-----------7--
A|--------------------------------------
E|--------------------------------------
Over the fields we go. Laughing all the the way
E|-----------------------------5--------------
B|-----------6--5--------8--8-----8--5--------
G|-----------------7--4-----------------7--5--
D|--7--7--7-----------------------------------
A|--------------------------------------------
E|--------------------------------------------
Jingle Bells, Jingle Bells.Jingle All The Way.
E|-----------------------------------
B|--5--5--5--5--5--5--5--8--------5--
G|--------------------------5--7-----
D|-----------------------------------
A|-----------------------------------
E|-----------------------------------
Oh! What Fun It is to ride.In a one horse open sleigh
E|--------------------------------------------
B|--6--6--6--6--5--5--5--5-----------5-----8--
G|--------------------------7--7--7-----7-----
D|--------------------------------------------
A|--------------------------------------------
E|--------------------------------------------
Jingle Bells, Jingle Bells.Jingle All The Way.
E|-----------------------------------
B|--5--5--5--5--5--5--5--8--------5--
G|--------------------------5--7-----
D|-----------------------------------
A|-----------------------------------
E|-----------------------------------
Oh! What Fun It is to ride.In a one horse open sleigh
E|--------------------------------------------
B|--6--6--6--6--5--5--5--5-----------5-----8--
G|--------------------------7--7--7-----7-----
D|--------------------------------------------
A|--------------------------------------------
E|--------------------------------------------
Dashing through the snow . In a one horse open sleigh.
E|--------------------------------------
B|-----5--------------------5-----------
G|--------7--5-----------------7--5-----
D|--5-----------5--5--5--5-----------7--
A|--------------------------------------
E|--------------------------------------
Over the fields we go. Laughing all the the way
E|-----------------------------5--------------
B|-----------6--5--------8--8-----8--5-----5--
G|-----------------7--4-----------------7-----
D|--7--7--7-----------------------------------
A|--------------------------------------------
E|--------------------------------------------

Song lyrics here 
E|--
B|--
G|--
D|--
A|--
E|--

Use manual mode to free up cursor. Paste any tab in acousterr tab maker and we'll play it !!!
tabs and chords, guitar tabs, music transcription, music technology, deep learning, music information retrieval, transcribe into tabs & chords, chordify, music renditions, songsterr, reverbnation, tabulature, bollywood chords, ultimate guitar, yousician, guitar lessons, acoustic guitar, electric guitar, guitar tuner, 911 tabs