Guitar Tabs for Jimmy Daily Exercise

(/) Slide Up  (\) Slide Down  (h) Hammer On  (p) Pull Off  (b) Bend (r) Release (v) Vibrato (x) Muted


E|--------------------------------------------8--
B|-----------------------------------8--10-11----
G|-----------9--8-----------8--9--11-------------
D|--11-8--11-------11-8--11----------------------
A|-----------------------------------------------
E|-----------------------------------------------

E|-----------------------------------5--8--9--5--------
B|--------------------------5--7--8--------------5--8--
G|-----------4--7--4--5--6-----------------------------
D|--------5--------------------------------------------
A|--4--7-----------------------------------------------
E|-----------------------------------------------------

E|--8--7--6--5--------------------------------------------------------------------------
B|--------------7--------7--6--5--4-----------------------------------------------------
G|-----------------8--5--------------5--------8--7--6--5--------------------------------
D|--------------------------------------7--4--------------7--------7--6--5--4-----------
A|-----------------------------------------------------------9--6--------------7--------
E|--------------------------------------------------------------------------------8--5--



E|--------------------------------------------------------1--4--2--3-------------------------------------------------------------
B|--------------------------------------------1--4--2--3--------------4--1--2--3-----------------------------------------------
G|--------------------------------1--4--2--3--------------------------------------4--1--2--3-----------------------------------
D|--------------------1--4--2--3--------------------------------------------------------------4--1--2--3-----------------------
A|--------1--4--2--3--------------------------------------------------------------------------------------4--1--2--3-----------
E|--2--3--------------------------------------------------------------------------------------------------------------4--1--2--

Tabs for Song : 
BPM : 200

Song lyrics here 
E|--4--3--6--4--3--------------------------------
B|-----------------6--5--3-----------------------
G|--------------------------6--4--3--------------
D|-----------------------------------6--5--3--2--
A|-----------------------------------------------
E|-----------------------------------------------

E|--8--5-----------------5-----------------------------------------------------------------------------
B|--------8--5-----5--8-----8--5-----------------5-----------------------------------------------------
G|--------------7-----------------7--5-----5--7-----7--5-----------------5-----------------------------
D|--------------------------------------7-----------------7--5-----5--7-----7--5-----------------5--7--
A|--------------------------------------------------------------7-----------------7--5-----5--7--------
E|--------------------------------------------------------------------------------------8--------------



Song lyrics here 
E|--8--5-----------5-----------------------------------------------------------
B|--------8--5--8-----8--5-----------5-----------------------------------------
G|--------------------------7--5--7-----7--5-----------5-----------------------
D|--------------------------------------------7--5--7-----7--5-----------5--7--
A|--------------------------------------------------------------7--5--7--------
E|-----------------------------------------------------------------------------

E|--8--5-----5--------------------------------------------------------------------------------------------
B|--------8-----8--5--8--5-----------5--8--5-----5--------------------------------------------------------
G|--------------------------7--5--7-----------7-----7--5-----------5--------------------------------------
D|--------------------------------------------------------7--5--7-----7--5-----5--------------------------
A|--------------------------------------------------------------------------7-----7--5--7--5-----5--------
E|--------------------------------------------------------------------------------------------8-----8--5--

E|--------------------------------12-15-
B|--------------------12-15-13-14-------
G|--------12-15-13-14-------------------
D|--13-14-------------------------------
A|--------------------------------------
E|--------------------------------------

E|--8--5-----5--4-----------------------------------------------------------------------------------
B|--------8--------8--5-----8--5-----5--4-----------------------------------------------------------
G|-----------------------7--------7--------7--5-----7--5-----7--5-----5-----------------------------
D|-----------------------------------------------7--------7--------7-----7--5-----------------------
A|-----------------------------------------------------------------------------7--6--5--6--5--------
E|--------------------------------------------------------------------------------------------8--5--

E|-----------------------------------------------5--------------
B|-----------------------------5--------8--5--------8--5--8--10-
G|-----------5--------7--5--------7--5--------7-----------------
D|--7--5--------7--5--------7-----------------------------------
A|--------7-----------------------------------------------------
E|--------------------------------------------------------------

E|--16-15-14-12-13----12-------12-------------------------------------------------------
B|-----------------16----15-16----15-16-15-14----13----12-------------------------------
G|--------------------------------------------16----15----14-15-13-14-12-13-12-11-------
D|--------------------------------------------------------------------------------14-15-
A|--------------------------------------------------------------------------------------
E|--------------------------------------------------------------------------------------

Use manual mode to free up cursor. Paste any tab in acousterr tab maker and we'll play it !!!
tabs and chords, guitar tabs, music transcription, music technology, deep learning, music information retrieval, transcribe into tabs & chords, chordify, music renditions, songsterr, reverbnation, tabulature, bollywood chords, ultimate guitar, yousician, guitar lessons, acoustic guitar, electric guitar, guitar tuner, 911 tabs