Jet City Woman - Queensryche - Guitar Tabs

Rhythm
    
                                                                                                                                                                                                                                                                                                                                                                                                                                                                                                                                                                                                                                                                                                                                                                                                                                                                                                                                                                                                                                                                                                                                                                                              
E|----------------------------|--------------------------|
B|----------------------------|--------------------------|
G|--------------------7-------|--------------------------|
D|-----------------4--7-----6-|---------6--6--6--4-------|
A|-----------------4--5-----6-|---------6--6--6--4-------|
E|------------0p2--2--------4-|---------4--4--4--2-------|

    
                                                                                                                                                                                                                                                                                                                                                                                                                                                                                                                                                                                                                                                                                                                                                                                                                                                                                                                                                                                                                                                                                                                                                                                              
E|-------------------------|-----------------------|
B|-------------------------|-----------------------|
G|-----------------7-------|-----------------------|
D|--------------4--7-----6-|---------6--2----------|
A|--------------4--5-----6-|---------6--2----------|
E|--------------2--------4-|---------4--0----------|

    
                                                                                                                                                                                                                                                                                                                                                                                                                                                                                                                                                                                                                                                                                                                                                                                                                                                                                                                                                                                                                                                                                                                                                                                              
E|-------------------------|--------------------------|
B|-------------------------|--------------------------|
G|-----------------7-------|------------------6-------|
D|-----------2--4--7-----6-|---------6--6--6--6-------|
A|-----------2--4--5-----6-|---------6--6--6--4-------|
E|-----------0--2--------4-|---------4--4--4----------|

    
                                                                                                                                                                                                                                                                                                                                                                                                                                                                                                                                                                                                                                                                                                                                                                                                                                                                                                                                                                                                                                                                                                                                                                                              
E|-------------------------|-----------------------|
B|-------------------------|-----------------------|
G|-----------------7-------|-----------------------|
D|--------------4--7-----6-|---------6--2----------|
A|--------------4--5-----6-|---------6--2----------|
E|--------------2--------4-|---------4--0----------|

    
                                                                                                                                                                                                                                                                                                                                                                                                                                                                                                                                                                                                 
E|-------------------------|
B|-------------------------|
G|-------------------------|
D|-----------2-------------|
A|-----------2-------------|
E|-----------0-------------|

    
                                                                                                                                                                                                                                                                                                                                                                                                                                                                                                                                                                                                                                                                                                                                                                                                                                                                                                                                                                                                                                                                                                                                                                                              
E|-------------------------|-----------------------|
B|-------------------------|-----------------------|
G|--------------4----------|------4--8--------8--9-|
D|-------------------------|-----------------------|
A|--------------2----------|------2--6--------6--7-|
E|-------------------------|-----------------------|

    
                                                                                                                                                                                                                                                                                                                                                                                                                                                                                                                                                                                                                                                                                                                                                                                                                                                                                                                                                                                                                                                                                                                                                                                              
E|-------------------------|-----------------------------------|
B|-------------------------|------------9-----------------9----|
G|--------9--11-------11---|------------8-----------------8--4-|
D|-------------------------|6--6--6--6--------6--6--6--6-------|
A|--------7--9--------9----|---------------------------------2-|
E|-------------------------|-----------------------------------|

    
                                                                                                                                                                                                                                                                                                                                                                                                                                                                                                                                                                                                                                                                                                                                                                                                                                                                                                                                                                                                                                                                                                                                                                                              
E|-------------------------|-----------------------|
B|-------------------------|-----------------------|
G|--------4--8--------8--9-|------9--11-------11---|
D|-------------------------|-----------------------|
A|--------2--6--------6--7-|------7--9--------9----|
E|-------------------------|-----------------------|

    
                                                                                                                                                                                                                                                                                                                                                                                                                                                                                                                                                                                                                                                                                                                                                                                                                                                                                                                                                                                                                                                                                                                                                                                              
E|-------------------------|---------16------------|
B|--------------12---------|---11-12---------------|
G|-------------------------|---------------------4-|
D|-------------------------|-----------------------|
A|-------------------------|-----------------------|
E|-------------------------|-----------------------|

    
                                                                                                                                                                                                                                                                                                                                                                                                                                                                                                                                                                                                                                                                                                                                                                                                                                                                                                                                                                                                                                                                                                                                                                                              
E|-------------------------|-----------------------|
B|-------------------------|-----------------------|
G|-----3--4-----4--3--4--4-|---3--4-----4--3--4--6-|
D|-------------------------|-----------------------|
A|-------------------------|-----------------------|
E|-------------------------|-----------------------|

    
                                                                                                                                                                                                                                                                                                                                                                                                                                                                                                                                                                                                                                                                                                                                                                                                                                                                                                                                                                                                                                                                                                                                                                                              
E|-------------------------|-----------------------|
B|-------------------------|-----------------------|
G|-----4--6-----6--4--6--8-|---6--4-----4--6-----4-|
D|-------------------------|-----------------------|
A|-------------------------|-----------------------|
E|-------------------------|-----------------------|

    
                                                                                                                                                                                                                                                                                                                                                                                                                                                                                                                                                                                                                                                                                                                                                                                                                                                                                                                                                                                                                                                                                                                                                                                              
E|-------------------------|-----------------------|
B|-------------------------|-----------------------|
G|-----3--4-----4--3--4--4-|---3--4-----4--3--4--6-|
D|-------------------------|-----------------------|
A|-------------------------|-----------------------|
E|-------------------------|-----------------------|

    
                                                                                                                                                                                                                                                                                                                                                                                                                                                                                                                                                                                                                                                                                                                                                                                                                                                                                                                                                                                                                                                                                                                                                                                              
E|----------------------------|-----------------------|
B|----------------------------|-----------------------|
G|-----4--6-----6--8---6p8--6-|------------4--6-------|
D|----------------------------|-----------------------|
A|----------------------------|-----------------------|
E|----------------------------|-----------------------|

About Jet City Woman : "Jet City Woman" is a song by progressive metal band Queensr " Jet City" is a nickname for Seattle, the band's hometown . It was written about Geoff Tate's first wife, who was a flight attendant . It was released in 1991. It was released as part of album Empire. The genre is progressive metal heavy metal. The track was release in 1991. It is related to the album(s) - Empire. The track has an affiliation to the band(s) - Queensr├┐che.

tabs and chords, guitar tabs, music transcription, music technology, deep learning, music information retrieval, transcribe into tabs & chords, chordify, music renditions, songsterr, reverbnation, tabulature, bollywood chords, ultimate guitar, yousician, guitar lessons, acoustic guitar, electric guitar, guitar tuner, 911 tabs