Bass Tabs for Jerry Lee Lewis - Great Balls Of Fire

Jerry Lee Lewis - Great Balls Of Fire

Intro
G|--------------------------------------------------------------------------
D|--------------------0--2--3--------------5-----5--5--4--3-----------------
A|-----0--2--3-----3--------------5--7--8--------------------------0--2--3--
E|--3-----------------------------------------------------------3-----------

1st Verse
G|-----------------
D|-----------7-----
A|-----7--10----10-
E|--8--------------

G|-----------7--------------7-----
D|-----7--10----10----7--10----10-
A|--8--------------8--------------
E|--------------------------------

G|-----------9--------------7--------
D|-----9--12----12----7--10----10----
A|--10-------------8-----------------
E|--------------------------------8--

2nd Verse
G|-----------7--------------------
D|-----7--10----10----7--10-7--10-
A|--8--------------8--------------
E|--------------------------------

G|--------------------------------
D|-----------7--------------7-----
A|-----7--10----10----7--10----10-
E|--8--------------8--------------

G|-----------7--8--7-----------
D|-----7--10----------10-7-----
A|--8-----------------------10-
E|-----------------------------

Pre- 3rd Chorus
G|--------------------------------------------
D|--------------------------------------------
A|--------------------------------------------
E|--3--3--3--3-----3--3--3--3-----3--3--3--3--

G|-----------------------
D|-----------------------
A|-----------------------
E|--3-----3-----3-----3--

4th Verse
G|-----------------
D|-----------7-----
A|-----7--10----10-
E|--8--------------

G|-----------7--------------7-----
D|-----7--10----10----7--10----10-
A|--8--------------8--------------
E|--------------------------------

G|-----------9--------------7--------
D|-----9--12----12----7--10----10----
A|--10-------------8-----------------
E|--------------------------------8--

Piano Solo (2x)
G|--------------------------------
D|-----------7--------------7-----
A|-----7--10----10----7--10----10-
E|--8--------------8--------------

G|-----------7--------------7--
D|-----7--10----10----7--10----
A|--8--------------8-----------
E|-----------------------------

G|-----------9--------------7-----------------------------------
D|-----9--12----12----7--10----10----------7--------------7-----
A|--10-------------8-----------------7--10----10----7--10----10-
E|--------------------------------8--------------8--------------

5th Verse
G|-----------7--------------7-----------------------------------
D|-----7--10----10----7--10----10----------7--------------7-----
A|--8--------------8-----------------7--10----10----7--10----10-
E|--------------------------------8--------------8--------------

G|-----------7--------------7--------
D|-----7--10----10----7--10----10----
A|--8--------------8--------------10-
E|-----------------------------------

G|--------------------------------------------------------------------
D|--------------------------------------------------------------------
A|--------------------------------------------------------------------
E|--3--3--3--3-----3--3--3--3-----3--3--3--3-----3-----3-----3-----3--

Last Verse
G|--------------------------------
D|-----------7--------------7-----
A|-----7--10----10----7--10----10-
E|--8--------------8--------------

G|-----------7--------------7--
D|-----7--10----10----7--10----
A|--8--------------8-----------
E|-----------------------------

G|-----------9--------------7--------
D|-----9--12----12----7--10----10----
A|--10-------------8-----------------
E|--------------------------------8--

G|--------------
D|--------------
A|--------------
E|--8--8--8--8--
tabs and chords, guitar tabs, music transcription, music technology, deep learning, music information retrieval, transcribe into tabs & chords, chordify, music renditions, songsterr, reverbnation, tabulature, bollywood chords, ultimate guitar, yousician, guitar lessons, acoustic guitar, electric guitar, guitar tuner, 911 tabs