Bass Tabs for Jazz Old Time R&r Page 1

(/) Slide Up  (\) Slide Down  (h) Hammer On  (p) Pull Off  (b) Bend (r) Release (v) Vibrato (x) Muted

Tabs for Song : 

Song lyrics here
G|-----------------------------------------------------------------------------------------------------------------
D|-----------------------------------------------------------------------------------------------------------------
A|--------------------------------------------------------------0--1--1--1--1--1--1--1--1--1--1--1--1--1--1--1--2--
E|--------------0--1--1--1--1--1--1--1--1--1--1--1--1--1--1--1-----------------------------------------------------

G|--------------------------------------------------------------------------------------------------------------
D|--------------------------------------------------------------------------------------------------------------
A|--3--3--3--3--3--3--3--3--3--3--3--3--3--3--3-----------------------------------------------------------------
E|-----------------------------------------------0--1--1--1--1--1--1--1--1--1--1--1--1--1--1--1--1--1--1--1--1--

G|--------------------------------------------------------------------------------------------------------------
D|--------------------------------------------------------------------------------------------------------------
A|-----------------------------------0--1--1--1--1--1--1--1--1--1--1--1--1--1--1--1--2--3--3--3--3--3--3--3--3--
E|--1--1--1--1--1--1--1--1--1--1--1-----------------------------------------------------------------------------

G|--------------------------------------------------------------------------------------------------------------
D|--------------------------------------------------------------------------3--3--0-----0-----0--3--3--3--0--0--
A|--3--3--3--3--3--3--3--------------------------3--3--3--3--3--3--3--3--3-----------3-----3--------------------
E|-----------------------0--1--1--1--1--1--1--1-----------------------------------------------------------------

G|--------------4--4--0-----0-----0--4--4--4--0--0--------0-----5--5--2--0--2--0--2--5--5--5--0--0--2--0-----------
D|--------0--------------3-----3--------------------3--3-----3--------------------------------------------3--3--0--
A|--3--3-----3-----------------------------------------------------------------------------------------------------
E|-----------------------------------------------------------------------------------------------------------------

G|-----------------------------------------
D|-----0-----0-----------------------------
A|--3-----3-----3--3--3--3--3--3--3--3--3--
E|-----------------------------------------





Song lyrics here
G|--
D|--
A|--
E|--

Paste any tab in acousterr's tab maker and we'll play it !!!
Now supports capo and sound effects for vibrato/pull-off/hammer/bends/mutes etc !!! Checkout help section
tabs and chords, guitar tabs, music transcription, music technology, deep learning, music information retrieval, transcribe into tabs & chords, chordify, music renditions, songsterr, reverbnation, tabulature, bollywood chords, ultimate guitar, yousician, guitar lessons, acoustic guitar, electric guitar, guitar tuner, 911 tabs