Guitar Tabs for Japanese National Anthem

E|--------------------------
B|--------------------------
G|--7--5--7--9--12-9--7-----
D|--------------------------
A|--5--3--5--7--10-7--5-----
E|--------------------------

E|--0-----3-----1-----3-----1-----5-----3-----5-----0-----0-----3-----1-----1-----5-----0-----5-----
B|--1-----5-----1-----5-----1-----7-----3-----7-----0-----1-----5-----1-----1-----6-----1-----6-----
G|--0-----5-----2-----5-----2-----7-----4-----5-----1-----0-----5-----2-----2-----7-----2-----7-----
D|--2-----5-----3-----5-----3-----7-----5-----7-----2-----2-----5-----3-----3-----7-----2-----7-----
A|--3-----3-----3-----3-----3-----5-----5-----5-----2-----3-----3-----3-----3-----5-----0-----5-----
E|--------------1-----------1-----------3-----------0-----------------1-----1-----------------------

E|--0-----3-----1-----3-----------------3-----3-----1-----1-----5-----0-----5--
B|--1-----5-----1-----5-----5-----5-----------3-----1-----1-----6-----1-----6--
G|--2-----5-----2-----5-----5-----5-----------4-----2-----2-----7-----2-----7--
D|--2-----5-----3-----5-----------2-----1-----5-----3-----3-----7-----2-----7--
A|--0-----3-----3-----3-----3-----------------5-----3-----3-----5-----0-----5--
E|--------------1-----------------------------3-----1-----1--------------------

E|-----------------------------------
B|-----------------------------------
G|--14----12----14----12----9-----7--
D|-----------------------------------
A|--12----10----12----10----7-----5--
E|-----------------------------------


tabs and chords, guitar tabs, music transcription, music technology, deep learning, music information retrieval, transcribe into tabs & chords, chordify, music renditions, songsterr, reverbnation, tabulature, bollywood chords, ultimate guitar, yousician, guitar lessons, acoustic guitar, electric guitar, guitar tuner, 911 tabs