Guitar Tabs for jane jaan dhoonta phir raha

Tabs for Song : jaane jana dhoodhta fir raha 

jane jaan dhoodhta fir rha 
E|--------------------------------------------------
B|--1-----------------------------------------------
G|--------3-----3--0-----0--0--2-----2-----0--------
D|--------------------------------------------3-----
A|--------------------------------------------------
E|--------------------------------------------------

hu tumhe raat din
E|--------------------------------
B|--------------------------------
G|-----------------0--3--3--2-----
D|--3-----3--3--------------------
A|--------------------------------
E|--------------------------------

mein yahan se waha
E|--------------------------------
B|--------------------------------
G|-----------0-----2-----0--0-----
D|--3-----3-----------------------
A|--------------------------------
E|--------------------------------

mujhko awaz do 
E|--------------------1-----------
B|--1--1--1--4-----4-----4--3-----
G|--------------------------------
D|--------------------------------
A|--------------------------------
E|--------------------------------

chip gye ho sanam
E|--------------------1-----------
B|--1--1--1--4-----4-----4--3-----
G|--------------------------------
D|--------------------------------
A|--------------------------------
E|--------------------------------

tum kahan, mein yahan
E|--------------------------------------
B|-----------1-----------4-----4--3-----
G|--3-----3-----------------------------
D|--------------------------------------
A|--------------------------------------
E|--------------------------------------
tabs and chords, guitar tabs, music contests, music covers, songsterr, reverbnation, renditions, tabulature, bollywood chords, ultimate guitar, yousician, guitar lessons, torrins, fender, gibson, acoustic guitar, electric guitar, youtube covers, gootar, guitar tuner, A-Z tabs, 911 tabs