Bass Tabs for Jack Rock Blues - Deixa Rolar

Jack Rock Blues - Deixa Rolar

Pre-Intro
G|--------------------------------------                                                 
D|--------------------------------------
A|--------------------------------------
E|--3--------1--0--1--3--------1--0--1--

Intro
G|-----------------------------------------------------------------------------
D|-----------------------------------------------------------------------------
A|--------------------------------------------------------------1--1--3--3--3--
E|-----3--3--3--3--3--3--1--1--0--1--0--1-----3--3--3--3--3--3-----------------

Verse
G|--------------------------------------------------------------------------
D|--------------------------------------------------------------------------
A|-----------------------------------------------------------1--1--3--3--3--
E|--3--3--3-----------1--1--0--1--0--1-----3--3--3--------------------------

Pre-Chorus
G|-----------------------------------------------------------------------
D|-----------------------------------------------------------------------
A|--3--3--3--3--------------3--3--3--3--5--5--5--5--5--5--5--5--5--5--5--
E|--------------3--3--3--3-----------------------------------------------

Chorus & Solo
G|--------------------------------------------------------------------------------------
D|--------------------------------------------------------------------------------------
A|--------------------------------------------------------------------------------------
E|--3--3--3--3--1--1--0--0--1--3--3--3--3--3--1--1--0--0--1--3--3--3--3--1--1--0--0--1--

G|--------------------------------------------------------
D|--------------------------------------------------------
A|--1--1--1--1--1--5--5--5--5--5--5--5--5--5--5--5--5--5--
E|--------------------------------------------------------






tabs and chords, guitar tabs, music contests, music covers, songsterr, reverbnation, renditions, tabulature, bollywood chords, ultimate guitar, yousician, guitar lessons, torrins, fender, gibson, acoustic guitar, electric guitar, youtube covers, gootar, guitar tuner, A-Z tabs, 911 tabs