Guitar Tabs for Jack Johnson - Upside Down

Jack Johnson - Upside Down

Intro

1st Guitar

Strum Pattern -> D-D-UUD-UDU

    E     E    F#m   F#m
E|--0-----0-----2-----2--
B|--0-----0-----2-----2--
G|--1-----1-----2-----2--
D|--2-----2-----4-----4--
A|--2-----2-----4-----4--
E|--0-----0-----2-----2--

2nd Guitar

    E             E                F#m
E|--0-------------0-----------------2--------------------------
B|--0-------------0-----------------2--------------------------
G|--1-------4-----1-------4-4h6-----2--------------------------   2x
D|--2---2/6-------2---2/6-------4---4-----------4h6-4h6-4------
A|--2-------------2-----------------4--------------------------
E|--0-------------0-----------------2--------------------------

1st Verse

    E
  Who's to say, what's impossible
E|--0--------------------------
B|--0--------------------------
G|--1--------------------------
D|--2--------------------------
A|--2--------------------------
E|--0--------------------------

       F#m
Well they forgot, this world keeps spinning
E|-----2--------------------------------
B|-----2--------------------------------
G|-----2--------------------------------
D|-----4--------------------------------
A|-----4--------------------------------
E|-----2--------------------------------

          E
 And with each new day
E|--------0-----------
B|--------0-----------
G|--------1-----------
D|--------2-----------
A|--------2-----------
E|--------0-----------
                        F#m
I can feel a change in everything
E|-----------------------2--------
B|-----------------------2--------
G|-----------------------2--------
D|-----------------------4--------
A|-----------------------4--------
E|-----------------------2--------
                               E
  And as the surface breaks reflections fade
E|-----------------------------0-----------
B|-----------------------------0-----------
G|-----------------------------1-----------
D|-----------------------------2-----------
A|-----------------------------2-----------
E|-----------------------------0-----------
                       
                         F#m
But in some ways they remain the same
E|-----------------------2-----------
B|-----------------------2-----------
G|-----------------------2-----------
D|-----------------------4-----------
A|-----------------------4-----------
E|-----------------------2-----------
                            E
And as my mind begins to spread it's wings
E|--------------------------0-----------
B|--------------------------0-----------
G|--------------------------1-----------
D|--------------------------2-----------
A|--------------------------2-----------
E|--------------------------0-----------
                        
                        F#m
There's no stopping curiosity
E|-----------------------2--
B|-----------------------2--
G|-----------------------2--
D|-----------------------4--
A|-----------------------4--
E|-----------------------2--

Chorus

                               E       F#m
I want to turn the whole thing upside down
E|-----------------------------0--------2--
B|-----------------------------0--------2--
G|-----------------------------1--------2--
D|-----------------------------2--------4--
A|-----------------------------2--------4--
E|-----------------------------0--------2--

   A                  B                 E        F#m
     I'll find the things they say just can't be found
E|--0-----------------2-----------------0--------2-----
B|--2-----------------4-----------------0--------2-----
G|--2-----------------4-----------------1--------2-----
D|--2-----------------4-----------------2--------4-----
A|--0-----------------2-----------------2--------4-----
E|--------------------------------------0--------2-----

    A                 B                E     F#m
      I'll share this love I find with everyone
E|--0-----------------2-----------------0-----2-----
B|--2-----------------4-----------------0-----2-----
G|--2-----------------4-----------------1-----2-----
D|--2-----------------4-----------------2-----4-----
A|--0-----------------2-----------------2-----4-----
E|--------------------------------------0-----2-----
A                 B               E F#m
  We'll sing and dance to mother nature's songs
E|--0-----------------2-----------------0--------2-----
B|--2-----------------4-----------------0--------2-----
G|--2-----------------4-----------------1--------2-----
D|--2-----------------4-----------------2--------4-----
A|--0-----------------2-----------------2--------4-----
E|--------------------------------------0--------2-----

    A                 B                 E
  I don't want this feeling to go away
E|--0-----------------2-----------------0--
B|--2-----------------4-----------------0--
G|--2-----------------4-----------------1--
D|--2-----------------4-----------------2--
A|--0-----------------2-----------------2--
E|--------------------------------------0--

Pos-Chorus

    E             E                F#m
E|--0-------------0-----------------2--------------------------
B|--0-------------0-----------------2--------------------------
G|--1-------4-----1-------4-4h6-----2--------------------------  
D|--2---2/6-------2---2/6-------4---4-----------4h6-4h6-4------
A|--2-------------2-----------------4--------------------------
E|--0-------------0-----------------2--------------------------

    E             E                F#m
E|--0-------------0-----------------2-----------------------
B|--0-------------0-----------------2-----------------------
G|--1-------4-----1-------4-4h6-----2-----------------------  
D|--2---2/6-------2---2/6-------4---4-------------2h4--2----
A|--2-------------2-----------------4---------4-------------
E|--0-------------0-----------------2-----------------------

2nd Verse

    E
 Who's to say I can't do everything
E|--0--------------------------
B|--0--------------------------
G|--1--------------------------
D|--2--------------------------
A|--2--------------------------
E|--0--------------------------

       F#m
Well I can try, and as I roll along
E|-----2--------------------------------
B|-----2--------------------------------
G|-----2--------------------------------
D|-----4--------------------------------
A|-----4--------------------------------
E|-----2--------------------------------

          E
      I begin to find
E|--------0-----------
B|--------0-----------
G|--------1-----------
D|--------2-----------
A|--------2-----------
E|--------0-----------

                        F#m
Things aren't always just what they seem
E|-----------------------2--------
B|-----------------------2--------
G|-----------------------2--------
D|-----------------------4--------
A|-----------------------4--------
E|-----------------------2--------

2nd Chorus

                               E       F#m
I want to turn the whole thing upside down
E|-----------------------------0--------2--
B|-----------------------------0--------2--
G|-----------------------------1--------2--
D|-----------------------------2--------4--
A|-----------------------------2--------4--
E|-----------------------------0--------2--

   A                  B                 E        F#m
     I'll find the things they say just can't be found
E|--0-----------------2-----------------0--------2-----
B|--2-----------------4-----------------0--------2-----
G|--2-----------------4-----------------1--------2-----
D|--2-----------------4-----------------2--------4-----
A|--0-----------------2-----------------2--------4-----
E|--------------------------------------0--------2-----

    A                 B                E     F#m
      I'll share this love I find with everyone
E|--0-----------------2-----------------0-----2-----
B|--2-----------------4-----------------0-----2-----
G|--2-----------------4-----------------1-----2-----
D|--2-----------------4-----------------2-----4-----
A|--0-----------------2-----------------2-----4-----
E|--------------------------------------0-----2-----
A                 B               E F#m
  We'll sing and dance to mother nature's songs
E|--0-----------------2-----------------0--------2-----
B|--2-----------------4-----------------0--------2-----
G|--2-----------------4-----------------1--------2-----
D|--2-----------------4-----------------2--------4-----
A|--0-----------------2-----------------2--------4-----
E|--------------------------------------0--------2-----

    A                 B                 
     This world keeps spinning
E|--0-----------------2--------
B|--2-----------------4--------
G|--2-----------------4--------
D|--2-----------------4--------
A|--0-----------------2--------
E|-----------------------------

Tension

             G#m        F#m
And there's no time to waste
E|-----------4-----------2--
B|-----------4-----------2--
G|-----------4-----------2--
D|-----------6-----------4--
A|-----------6-----------4--
E|-----------4-----------2--

        G#m         A                   B
Well it all keeps spinning spinning, round and round and
E|--------4--------0--------------------2-----------------
B|--------4--------2--------------------4-----------------
G|--------4--------2--------------------4-----------------
D|--------6--------2--------------------4-----------------
A|--------6--------0--------------------2-----------------
E|--------4-----------------------------------------------

3rd Chorus

       E       F#m
       Upside down
E|-----0--------2--
B|-----0--------2--
G|-----1--------2--
D|-----2--------4--
A|-----2--------4--
E|-----0--------2--

   A                     B              E        F#m
    Who's to say what's impossible and can't be found
E|--0--------------------2--------------0--------2-----
B|--2--------------------4--------------0--------2-----
G|--2--------------------4--------------1--------2-----
D|--2--------------------4--------------2--------4-----
A|--0--------------------2--------------2--------4-----
E|--------------------------------------0--------2-----

    A                 B                E     F#m
       don't want this feeling to go away
E|--0-----------------2-----------------0-----2-----
B|--2-----------------4-----------------0-----2-----
G|--2-----------------4-----------------1-----2-----
D|--2-----------------4-----------------2-----4-----
A|--0-----------------2-----------------2-----4-----
E|--------------------------------------0-----2-----

Pos-Chorus

    E             E                F#m
E|--0-------------0-----------------2--------------------------
B|--0-------------0-----------------2--------------------------
G|--1-------4-----1-------4-4h6-----2--------------------------  
D|--2---2/6-------2---2/6-------4---4-----------4h6-4h6-4------
A|--2-------------2-----------------4--------------------------
E|--0-------------0-----------------2--------------------------

    E             E                F#m        F#m
    Please don't go away
E|--0-------------0-----------------2---------2----
B|--0-------------0-----------------2---------2----
G|--1-------4-----1-------4-4h6-----2---------2----  
D|--2---2/6-------2---2/6-------4---4---------4----
A|--2-------------2-----------------4---------4----
E|--0-------------0-----------------2---------2----

    E             E                F#m        F#m
    Please don't go away
E|--0-------------0-----------------2---------2----
B|--0-------------0-----------------2---------2----
G|--1-------4-----1-------4-4h6-----2---------2----  
D|--2---2/6-------2---2/6-------4---4---------4----
A|--2-------------2-----------------4---------4----
E|--0-------------0-----------------2---------2----

    E             E                F#m               F#m
    Please don't go away
E|--0-------------0-----------------------2-----------2--
B|--0-------------0---------5---5/7-------2-----------2--
G|--1-------4-----1----4/6-----------6----2-----------2--  
D|--2---2/6-------2-----------------------4-----------4--
A|--2-------------2-----------------------4-----------4--
E|--0-------------0-----------------------2-----------2--

    E                E                   F#m        F#m
    Please don't go away
E|--0----------------0--------------------2---------2----
B|--0---9h12-9--7----0----5h7--5--2--5----2---------2----
G|--1----------------1--------------------2---------2----  
D|--2----------------2--------------------4---------4----
A|--2----------------2--------------------4---------4----
E|--0----------------0--------------------2---------2----

Outro

    E       F#m   A         B  E
Is this how it's supposed   to be
E|--0--------2-----0--------2--0--
B|--0--------2-----2--------4--0--
G|--1--------2-----2--------4--1--
D|--2--------4-----2--------4--2--
A|--2--------4-----0--------2--2--
E|--0--------2-----------------0--

    E         F#m       A     B    E
     Is this how it's supposed to be
E|---------------------------------0---
B|---------------------5/7---------0---
G|--4/6----------------------------1---
D|---------------------------------2---
A|---------------------------------2---
E|---------------------------------0---

tabs and chords, guitar tabs, music transcription, music technology, deep learning, music information retrieval, transcribe into tabs & chords, chordify, music renditions, songsterr, reverbnation, tabulature, bollywood chords, ultimate guitar, yousician, guitar lessons, acoustic guitar, electric guitar, guitar tuner, 911 tabs