Guitar Tabs for Jack Johnson - Sitting, Waiting, Wishing

Jack Johnson - Sitting, Waiting, Wishing

Intro

    Am    Am7   G     G7    F     F7    C     C7
E|--0-----0-----3-----3-----1-----1-----0-----0--
B|--1-----1-----3-----3-----1-----1-----1-----1--
G|--2-----0-----4-----4-----2-----2-----0-----3--
D|--2-----2-----5-----3-----3-----1-----2-----2--
A|--0-----0-----5-----5-----3-----3-----3-----3--
E|--------------3-----3-----1-----1--------------

1st Verse

       Am             Am7
  Well I was sitting, waiting, wishing
E|-----0--------------0--------------
B|-----1--------------1--------------
G|-----2--------------0--------------
D|-----2--------------2--------------
A|-----0--------------0--------------
E|-----------------------------------

    G              G7
   You believed in superstitions
E|--3--------------3-----------
B|--3--------------3-----------
G|--4--------------4-----------
D|--5--------------3-----------
A|--5--------------5-----------
E|--3--------------3-----------
  
    F                 F7       C        C7
   Then maybe you'd  see  the  signs
E|--1-----------------1--------0--------0--
B|--1-----------------1--------1--------1--
G|--2-----------------2--------0--------3--
D|--3-----------------1--------2--------2--
A|--3-----------------3--------3--------3--
E|--1-----------------1--------------------

       Am             Am7
  But lord knows that this world is cruel
E|-----0--------------0-----------------
B|-----1--------------1-----------------
G|-----2--------------0-----------------
D|-----2--------------2-----------------
A|-----0--------------0-----------------
E|--------------------------------------

    G              G7
And I ain't the lord no I'm just a fool
E|--3--------------3-----------
B|--3--------------3-----------
G|--4--------------4-----------
D|--5--------------3-----------
A|--5--------------5-----------
E|--3--------------3-----------
  
    F                 F7       C        C7
Learning loving somebody don't make them love you
E|--1-----------------1--------0--------0--------
B|--1-----------------1--------1--------1--------
G|--2-----------------2--------0--------3--------
D|--3-----------------1--------2--------2--------
A|--3-----------------3--------3--------3--------
E|--1-----------------1--------------------------

Chorus

        E E7       E        E7          Am    Am7   Am    Am7
Must I always be   waiting, waiting on you?
E|-----0--0--------0--------0-----------0-----0-----0-----0--
B|-----0--3--------0--------3-----------1-----1-----1-----1--
G|-----1--1--------1--------1-----------2-----0-----2-----0--
D|-----2--2--------2--------2-----------2-----2-----2-----2--
A|-----2--2--------2--------2-----------0-----0-----0-----0--
E|-----0--0--------0--------0--------------------------------

        E E7       E        E7          Am    Am7   Am    Am7
Must I always be playing, playing your fool?
E|-----0--0--------0--------0-----------0-----0-----0-----0--
B|-----0--3--------0--------3-----------1-----1-----1-----1--
G|-----1--1--------1--------1-----------2-----0-----2-----0--
D|-----2--2--------2--------2-----------2-----2-----2-----2--
A|-----2--2--------2--------2-----------0-----0-----0-----0--
E|-----0--0--------0--------0--------------------------------

2nd Verse

       Am                Am7
    I sang your songs, I danced your dance 
E|-----0-----------------0--------------
B|-----1-----------------1--------------
G|-----2-----------------0--------------
D|-----2-----------------2--------------
A|-----0-----------------0--------------
E|--------------------------------------

    G                 G7
  I gave your friends all a chance
E|--3-----------------3-----------
B|--3-----------------3-----------
G|--4-----------------4-----------
D|--5-----------------3-----------
A|--5-----------------5-----------
E|--3-----------------3-----------
  
    F                    F7                C        C7
   Putting up with them wasn't worth never having you
E|--1--------------------1-----------------0--------0--
B|--1--------------------1-----------------1--------1--
G|--2--------------------2-----------------0--------3--
D|--3--------------------1-----------------2--------2--
A|--3--------------------3-----------------3--------3--
E|--1--------------------1-----------------------------

       Am                         Am7
   Or maybe you've been  through  this before
E|-----0--------------------------0--------------
B|-----1--------------------------1--------------
G|-----2--------------------------0--------------
D|-----2--------------------------2--------------
A|-----0--------------------------0--------------
E|-----------------------------------------------

    G                       G7
But it's my first time so please ignore
E|--3-----------------------3-----------
B|--3-----------------------3-----------
G|--4-----------------------4-----------
D|--5-----------------------3-----------
A|--5-----------------------5-----------
E|--3-----------------------3-----------
  
       F                    F7                   C        C7
These next few lines cause they're directed at   you
E|-----1--------------------1--------------------0--------0--
B|-----1--------------------1--------------------1--------1--
G|-----2--------------------2--------------------0--------3--
D|-----3--------------------1--------------------2--------2--
A|-----3--------------------3--------------------3--------3--
E|-----1--------------------1--------------------------------

2nd Chorus

          E E7     E        E7          Am    Am7   Am    Am7
I can't  always be waiting, waiting on you?
E|--------0--0-----0--------0-----------0-----0-----0-----0--
B|--------0--3-----0--------3-----------1-----1-----1-----1--
G|--------1--1-----1--------1-----------2-----0-----2-----0--
D|--------2--2-----2--------2-----------2-----2-----2-----2--
A|--------2--2-----2--------2-----------0-----0-----0-----0--
E|--------0--0-----0--------0--------------------------------

          E E7        E        E7             Am    Am7   Am    Am7
I can't   always be   playing, playing your   fool
E|--------0--0--------0--------0--------------0-----0-----0-----0--
B|--------0--3--------0--------3--------------1-----1-----1-----1--
G|--------1--1--------1--------1--------------2-----0-----2-----0--
D|--------2--2--------2--------2--------------2-----2-----2-----2--
A|--------2--2--------2--------2--------------0-----0-----0-----0--
E|--------0--0--------0--------0-----------------------------------

Tension

    C                       E
      I keep playing your part
E|--0-----------------------0--
B|--1-----------------------0--    
G|--0-----------------------1--
D|--2-----------------------2--
A|--3-----------------------2--
E|--------------------------0--

                F
But it's not my scene
E|--------------1-----
B|--------------1-----
G|--------------2-----
D|--------------3-----
A|--------------3-----
E|--------------1-----

                   G
Want this plot to twist
E|-----------------3--
B|-----------------3--
G|-----------------4--
D|-----------------5--
A|-----------------5--
E|-----------------3--

           F          C
I've had enough mystery
E|--------1-----------0--
B|--------1-----------1--
G|--------2-----------0--
D|--------3-----------2--
A|--------3-----------3--
E|--------1--------------

                   E
  Keep building it up
E|-----------------0--
B|-----------------0--
G|-----------------1--
D|-----------------2--
A|-----------------2--
E|-----------------0--

                            F
But then you're shooting me down
E|--------------------------1--
B|--------------------------1--
G|--------------------------2--
D|--------------------------3--
A|--------------------------3--
E|--------------------------1--

                G
But I'm already down
E|--------------3--
B|--------------3--
G|--------------4--
D|--------------5--
A|--------------5--
E|--------------3--

Pos-Tension

               Am    Am7
Just wait a minute
E|--------------0-----0--
B|--------------1-----1--
G|--------------2-----0--
D|--------------2-----2--
A|--------------0-----0--
E|-----------------------

    G       G7           F     F7
      Just sitting, waiting
E|--3--------3-----------1-----1-----
B|--3--------3-----------1-----1-----
G|--4--------4-----------2-----2-----
D|--5--------3-----------3-----1-----
A|--5--------5-----------3-----3-----
E|--3--------3-----------1-----1-----
  
   C         C7       Am    Am7
      Just wait a minute
E|--0--------0--------0-----0--
B|--1--------1--------1-----1--
G|--0--------3--------2-----0--
D|--2--------2--------2-----2--
A|--3--------3--------0-----0--
E|-----------------------------
  
    G        G7          F     F7    C     C7
       Just sitting, waiting
E|--3--------3-----------1-----1-----0-----0--
B|--3--------3-----------1-----1-----1-----1--
G|--4--------4-----------2-----2-----0-----3--
D|--5--------3-----------3-----1-----2-----2--
A|--5--------5-----------3-----3-----3-----3--
E|--3--------3-----------1-----1--------------

3rd Verse

       Am         Am7
  Well if I was in your position
E|-----0-----------0--------------
B|-----1-----------1--------------
G|-----2-----------0--------------
D|-----2-----------2--------------
A|-----0-----------0--------------
E|--------------------------------

       G                 G7
   I'd put down all my  amuntintion
E|-----3-----------------3-----------
B|-----3-----------------3-----------
G|-----4-----------------4-----------
D|-----5-----------------3-----------
A|-----5-----------------5-----------
E|-----3-----------------3-----------
  
    F                 F7          C     C7
I'd wonder why it had taken me so long
E|--1-----------------1-----------0-----0--
B|--1-----------------1-----------1-----1--
G|--2-----------------2-----------0-----3--
D|--3-----------------1-----------2-----2--
A|--3-----------------3-----------3-----3--
E|--1-----------------1--------------------

         Am                Am7
 But the Lord knows  that  I'm not you
E|--------0-----------------0--------------
B|--------1-----------------1--------------
G|--------2-----------------0--------------
D|--------2-----------------2--------------
A|--------0-----------------0--------------
E|-----------------------------------------

    G                   G7
And if I was I wouldn't be so cruel
E|--3--------------------3--------------
B|--3--------------------3--------------
G|--4--------------------4--------------
D|--5--------------------3--------------
A|--5--------------------5--------------
E|--3--------------------3--------------
  
       F                   F7           C     C7
Cause waitin' on love ain't so easy to  do
E|-----1--------------------1-----------0-----0--
B|-----1--------------------1-----------1-----1--
G|-----2--------------------2-----------0-----3--
D|-----3--------------------1-----------2-----2--
A|-----3--------------------3-----------3-----3--
E|-----1--------------------1--------------------

Last Chorus

          E E7     E        E7          Am    Am7   Am    Am7
  Must I always be waiting, waiting on you? 
E|--------0--0-----0--------0-----------0-----0-----0-----0--
B|--------0--3-----0--------3-----------1-----1-----1-----1--
G|--------1--1-----1--------1-----------2-----0-----2-----0--
D|--------2--2-----2--------2-----------2-----2-----2-----2--
A|--------2--2-----2--------2-----------0-----0-----0-----0--
E|--------0--0-----0--------0--------------------------------

          E E7        E        E7             Am    Am7   Am    Am7
  Must I always    be playing, playing your  fool?
E|--------0--0--------0--------0--------------0-----0-----0-----0--
B|--------0--3--------0--------3--------------1-----1-----1-----1--
G|--------1--1--------1--------1--------------2-----0-----2-----0--
D|--------2--2--------2--------2--------------2-----2-----2-----2--
A|--------2--2--------2--------2--------------0-----0-----0-----0--
E|--------0--0--------0--------0-----------------------------------

             E E7     E        E7          Am    Am7   Am    Am7
  No I can't always be waiting, waiting on you?
E|-----------0--0-----0--------0-----------0-----0-----0-----0--
B|-----------0--3-----0--------3-----------1-----1-----1-----1--
G|-----------1--1-----1--------1-----------2-----0-----2-----0--
D|-----------2--2-----2--------2-----------2-----2-----2-----2--
A|-----------2--2-----2--------2-----------0-----0-----0-----0--
E|-----------0--0-----0--------0--------------------------------

          E E7        E        E7             Am    Am7  
 I can't always   be  playing, playing your fool
E|--------0--0--------0--------0--------------0-----0--
B|--------0--3--------0--------3--------------1-----1--
G|--------1--1--------1--------1--------------2-----0--
D|--------2--2--------2--------2--------------2-----2--
A|--------2--2--------2--------2--------------0-----0--
E|--------0--0--------0--------0-----------------------

    E     E7    Am
   Fool..    uhmm..
E|--0-----0-----0--
B|--0-----3-----1--
G|--1-----1-----2--
D|--2-----2-----2--
A|--2-----2-----0--
E|--0-----0--------

tabs and chords, guitar tabs, music transcription, music technology, deep learning, music information retrieval, transcribe into tabs & chords, chordify, music renditions, songsterr, reverbnation, tabulature, bollywood chords, ultimate guitar, yousician, guitar lessons, acoustic guitar, electric guitar, guitar tuner, 911 tabs