Guitar Tabs for Jab Tak - M.s. Dhoni The Untold Story Tabs

(/) Slide Up  (\) Slide Down  (h) Hammer On  (p) Pull Off  (b) Bend (r) Release (v) Vibrato

Tabs for Song : Jab Tak

Jab tak teri aanch mein boond boond main jal na lun
E|--------9-----------9--9-----------9--9--9-----9--11-13-13-
B|---9/11----11-9--11-------11-9--11----------11-------------
G|-----------------------------------------------------------
D|-----------------------------------------------------------
A|-----------------------------------------------------------
E|-----------------------------------------------------------

Jab tak tere sath mein chand tak main chal na lun
E|--------9-----------9--9-----------9--9--9-----9--11-13-13-
B|---9/11----11-9--11-------11-9--11----------11-------------
G|-----------------------------------------------------------
D|-----------------------------------------------------------
A|-----------------------------------------------------------
E|-----------------------------------------------------------

Haan mere paas tum raho jaane ki baat na karo
E|-----9--11-11-9--13-9--9--------------9-----------
B|--11----------------------7--9--11-11----11-9--9--
G|--------------------------------------------------
D|--------------------------------------------------
A|--------------------------------------------------
E|--------------------------------------------------

Mere sath tum raho jaane ki baat na karo
E|--9--11--9/11-9--13-9--9--------------9-----------
B|--------------------------7--9--11-11----11-9--9--
G|--------------------------------------------------
D|--------------------------------------------------
A|--------------------------------------------------
E|--------------------------------------------------

Oh oh oh...
E|--------------------------------------------------
B|--7--9--11-7-----------6--7--9--11-7--------7--6--
G|--------------8--6--8-----------------8--6--------
D|--------------------------------------------------
A|--------------------------------------------------
E|--------------------------------------------------

Oh oh oh...
E|--------------------------------------------
B|--7--9--11-7-----------7--6--7--9--11-7-----
G|--------------8--6--8--------------------8--
D|--------------------------------------------
A|--------------------------------------------
E|--------------------------------------------
tabs and chords, guitar tabs, music transcription, music technology, deep learning, music information retrieval, transcribe into tabs & chords, chordify, music renditions, songsterr, reverbnation, tabulature, bollywood chords, ultimate guitar, yousician, guitar lessons, acoustic guitar, electric guitar, guitar tuner, 911 tabs