Guitar Tabs for I?zmir Mar??

(/) Slide Up  (\) Slide Down  (h) Hammer On  (p) Pull Off  (b) Bend (r) Release (v) Vibrato (x) Muted

Tabs for Song : 

Song lyrics here

E|-----------------------------------------------------------------------------------------------
B|--------5-----3--------------------------------------------------------------------------------
G|--4--------------5--4--2--4--2--------------4-----------4-----2--------------------------------
D|--------------------------------5--4--5-----------5--------------5--4--2--5--4--2--1--2--------
A|-----------------------------------------------------------------------------------------------
E|-----------------------------------------------------------------------------------------------
 
E|--------12-------------------------------------------------------------------------------
B|--12----------15-13-12----12----------------12----------12-------------------------------
G|-----------------------14----14-12-11-12----------12----------14-12-11-9--12-11-9--8--9--
D|-----------------------------------------------------------------------------------------
A|-----------------------------------------------------------------------------------------
E|-----------------------------------------------------------------------------------------


Song lyrics here
E|--
B|--
G|--
D|--
A|--
E|--

Paste any tab in acousterr's tab maker and we'll play it !!!
Now supports capo and sound effects for vibrato/pull-off/hammer/bends/mutes etc !!! Checkout help section
tabs and chords, guitar tabs, music transcription, music technology, deep learning, music information retrieval, transcribe into tabs & chords, chordify, music renditions, songsterr, reverbnation, tabulature, bollywood chords, ultimate guitar, yousician, guitar lessons, acoustic guitar, electric guitar, guitar tuner, 911 tabs