Guitar Tabs for Ismail Games Tricks First Ringtone

(/) Slide Up  (\) Slide Down  (h) Hammer On  (p) Pull Off  (b) Bend (r) Release (v) Vibrato (x) Muted

Tabs for Song : 

Song lyrics here
E|-----------------------4--5-----------0--2--4--5--------------------------------------
B|-----6--------4--8--12-------8--10-------------------------------9-----3-----5--------
G|--------6--------------------------4--------------5--6--7--8--9-----2-----------7--7--
D|--4--------4--------------------------------------------------------------4-----------
A|--------------------------------------------------------------------------------------
E|--------------------------------------------------------------------------------------

Song lyrics here
E|--------------------------------------------------------------------------------------------------
B|--1-----3--------2--3-----------------5-----------------------8--1-----3-----------------------10-
G|--------------------------------------------------------------------------------------------10----
D|-----3--------1-----------2--4--5--5-----4--2--5--5--7--7--8--------1-----4--6--7--7--8--9--------
A|-----------3-----------3--------------------------------------------------------------------------
E|--------------------------------------------------------------------------------------------------

Paste any tab in acousterr's tab maker and we'll play it !!!
Now supports capo and sound effects for vibrato/pull-off/hammer/bends/mutes etc !!! Checkout help section
tabs and chords, guitar tabs, music transcription, music technology, deep learning, music information retrieval, transcribe into tabs & chords, chordify, music renditions, songsterr, reverbnation, tabulature, bollywood chords, ultimate guitar, yousician, guitar lessons, acoustic guitar, electric guitar, guitar tuner, 911 tabs