Invincible - Muse - Guitar Tabs

Matt Guitar 2
    
                                                                                                                                                                                                                                                                                                                                                                                                                                                                                                                                                                                                                                                                                                                                                                                                                                                                                                                                                                                                                                                                                                                                                                                              
E|--19---------------------|-----------------------------------|
B|-------------------------|-----------------------------------|
G|-------------------------|-----------------------------------|
D|-------------------------|5--5-----5--5-----5--5-----5--5----|
A|-------------------------|3--3-----3--3-----3--3-----3--3----|
E|-------------------------|3--3-----3--3-----3--3-----3--3----|

    
                                                                                                                                                                                                                                                                                                                                                                                                                                                                                                                                                                                                                                                                                                                                                                                                                                                                                                                                                                                                                                                                                                                                                                                              
E|-------------------------------------|-----------------------------------|
B|-------------------------------------|-----------------------------------|
G|-------------------------------------|-----------------------------------|
D|--5--5-----5--5-----5--5-----5--5----|5--5-----5--5-----5--5-----5--5----|
A|--3--3-----3--3-----3--3-----3--3----|3--3-----3--3-----3--3-----3--3----|
E|--3--3-----3--3-----3--3-----3--3----|3--3-----3--3-----3--3-----3--3----|

    
                                                                                                                                                                                                                                                                                                                                                                                                                                                                                                                                                                                                                                                                                                                                                                                                                                                                                                                                                                                                                                                                                                                                                                                              
E|-------------------------------------|-----------------------------------|
B|-------------------------------------|-----------------------------------|
G|-------------------------------------|-----------------------------------|
D|--5--5-----5--5-----5--5-----5--5----|5--5-----5--5-----5--5-----5--5----|
A|--3--3-----3--3-----3--3-----3--3----|3--3-----3--3-----3--3-----3--3----|
E|--3--3-----3--3-----3--3-----3--3----|3--3-----3--3-----3--3-----3--3----|

    
                                                                                                                                                                                                                                                                                                                                                                                                                                                                                                                                                                                                                                                                                                                                                                                                                                                                                                                                                                                                                                                                                                                                                                                              
E|-------------------------------------|-----------------------------------------------|
B|-------------------------------------|------------1-----------------------1----------|
G|-------------------------------------|------0--------0-----0--------0--------0-----0-|
D|--5--5-----5--5-----5--5-----5--5----|---2-----2--------2--------2-----2--------2----|
A|--3--3-----3--3-----3--3-----3--3----|3-----------------------3----------------------|
E|--3--3-----3--3-----3--3-----3--3----|-----------------------------------------------|

    
                                                                                                                                                                                                                                                                                                                                                                                                                                                                                                                                                                                                                                                                                                                                                                                                                                                                                                                                                                                                                                                                                                                                                                                              
E|-------------------------------------------------|-----------------------------------------------|
B|--------------1-----------------------1----------|------------1-----------------------1----------|
G|--------0--------0-----0--------0--------0-----0-|------2--------2-----2--------2--------2-----2-|
D|-----2-----2--------2--------2-----2--------2----|---3-----3--------3--------3-----3--------3----|
A|--3-----------------------3----------------------|3-----------------------3----------------------|
E|-------------------------------------------------|-----------------------------------------------|

About Invincible (Muse song) : "Invincible" is the fourth single from Black Holes & Revelations (2006) Matthew Bellamy has cited David Bowie's "Heroes" as an influence on the song . The song debuted at number 21 on 15 April, becoming the first single from the album not to debut in the top-twenty of the UK Singles The video premiered in the United Kingdom on 16 March 2007 at around 11:50pm on Channel 4 . The song's length in the video is shorter than the album version but longer than the radio edit, lasting 4:30 . It was released in 2007. It was released as part of album Black Holes and Revelations. The genre is alternative rock progressive rock. The track was release in 2007. It is related to the album(s) - Black Holes & Revelations. The track has an affiliation to the band(s) - Muse.

About Muse (band) : The band consists of Matt Bellamy (lead vocals, guitar, keyboards), Chris Wolstenholme (bass guitar, backing vocals), Dominic Howard Muse signed to Maverick Records and released their debut album, Showbiz, in 1999 . Their second album, Origin of Symmetry (2001), incorporated wider instrumentation and romantic classical influences . Black Holes and Revelations (2006) incorporated electronic and pop elements . The Resistance (2009) and The 2nd Law explored themes of government oppression and civil uprising . Rolling Stone stated the band possessed "stadium-crushing songs" Muse (band) The group has many notable artists like Matt Bellamy,Chris Wolstenholme,Dominic Howard. Their music is influenced by genres - alternative rock progressive rock art rock hard rock space rock electronica.

About Black Holes and Revelations : Black Holes and Revelations is the fourth studio album by Muse . Recording was done in a four-month span and was split between New York and France . It also marked the first time the band took a more active role in production . Black Holes and Revelations received positive reviews from critics . The album entered the charts at number one in five countries, including the United Kingdom, and in the top 10 in several other countries . It was later certified triple platinum in the UK and went to the US . Muse began writing and rehearsing for their next album at Studio Miraval, an old ch√Ęteau in France . Producer Rich Costey, who produced Absolution, joined them two weeks It had a contribution from notable artists like Black Holes. It had an affiliation to bands - Muse. Its music is influenced by genres - alternative rock progressive rock space rock.

tabs and chords, guitar tabs, music transcription, music technology, deep learning, music information retrieval, transcribe into tabs & chords, chordify, music renditions, songsterr, reverbnation, tabulature, bollywood chords, ultimate guitar, yousician, guitar lessons, acoustic guitar, electric guitar, guitar tuner, 911 tabs