Guitar Tabs for Intro For Song In D

(/) Slide Up  (\) Slide Down  (h) Hammer On  (p) Pull Off  (b) Bend (r) Release (v) Vibrato (x) Muted

Tabs for Song : 

Song lyrics here
E|----------------------------------------------------------------------------------------------------------------------
B|--------------------------3--5--3--5----------------------------------------------------------------------------------
G|--------------2-4-7--------------------------7-6-4----2h4-------------------------------------------------------------
D|--------2-3-4-------------------------------------------------5p4-----4v-----2-1-0-----------------------------------
A|--2-4-5----------------------------------------------------------------------------2-1-0----------------2-4-5--
E|-----------------------------------------------------------------------------------------3v--3v--3v-------------------

Song lyrics here
E|-----------------------------------------------------------------------------------------------------------------------
B|-----------------------------3--5--3--5--------------------------------------------------------------------------------
G|--------------------2--4--7-----------------7--6--4---2h4--------------------------------------------------4--9--9--7--
D|-----------2--3--4------------------------------------------5p4--4v----2--1--0-----------------------------------------
A|--2--4--5-----------------------------------------------------------------------2--1--0-----------2--4--5--------------
E|-----------------------------------------------------------------------------------------3--3--3v----------------------

Now supports capo and sound effects for vibrato/pull-off/hammer/bends/mutes etc !!! Checkout help section
tabs and chords, guitar tabs, music transcription, music technology, deep learning, music information retrieval, transcribe into tabs & chords, chordify, music renditions, songsterr, reverbnation, tabulature, bollywood chords, ultimate guitar, yousician, guitar lessons, acoustic guitar, electric guitar, guitar tuner, 911 tabs