Guitar Tabs for Intro Chang Noi Nen Loi

(/) Slide Up  (\) Slide Down  (h) Hammer On  (p) Pull Off  (b) Bend (r) Release (v) Vibrato (x) Muted

Tabs for Song :  
BPM : 200

             C                         Cmaj7                                              Am7
E|----------------------0-----|--------------------------------0--------------|-----------------------3--
B|--------1-------------1-----|--------------0-----------------0--------------|---0\1-----------------1--
G|---0\2----------------0-----|--------0-----------------0-----0-----------0--|-----------------0-----0--
D|----------------------------|--2-----------------2-----------------2--------|---0------2---------------
A|-------------3--------------|--------------3--------------------------------|--------------------------
E|----------------------------|-----------------------------------------------|--------------------------
\
            Am7                   Csus4             Fm7                                 Dm7
E|--------------0-------------|---5-----3-----0-|---------------------0----------|--------------------1--------------
B|--------------1-------------|---3-----3-------|---1-----------------1----------|-------------1------1--------------
G|--------0-----0-----------0-|---3-----3-------|---------------2-----2--------2-|----------2---------2-----------2--
D|--2-----------------2-------|-----------------|---------3-----------------3----|----0---------------------0--------
A|--------------0-------------|---3-----3-------|--------------------------------|-----------------------------------
E|----------------------------|-----------------|---1----------------------------|-----------------------------------
     Fm                                 Dm7/G             G
E|--------------------1----------------|1-----1----|------3--
B|--1-----------------1----------------|1-----1----|------3--
G|--1-----------1-----1-----------1----|2-----2----|------0--
D|--------3-----------------3----------|-----------|---------
A|-------------------------------------|-----------|---------
E|--1----------------------------------|3-----3----|------3--

E|--
B|--
G|--
D|--
A|--
E|--

Song lyrics here 
E|--
B|--
G|--
D|--
A|--
E|--

Use manual mode to free up cursor. Paste any tab in acousterr tab maker and we'll play it !!!
tabs and chords, guitar tabs, music transcription, music technology, deep learning, music information retrieval, transcribe into tabs & chords, chordify, music renditions, songsterr, reverbnation, tabulature, bollywood chords, ultimate guitar, yousician, guitar lessons, acoustic guitar, electric guitar, guitar tuner, 911 tabs