In The Wake Of Poseidon - King Crimson - Guitar Tabs

Guitar 1
    
                                                                                                                                                                                                                                                                                                                                                                                                                                                                                                                                                                                                 
E|--7-----7-----7----------|
B|--8-----7-----7----------|
G|--9-----9-----9----------|
D|-------------------------|
A|--7----------------------|
E|-------------------------|

    
                                                                                                                                                                                                                                                                                                                                                                                                                                                                                                                                                                                                                                                                                                                                                                                                                                                                                                                                                                                                                                                                                                                                                                                              
E|--3-----------------3----|7-----------7----------|
B|--5-----------------5----|8-----------7----------|
G|--5-----------------5----|9-----------9----------|
D|-------------------------|-----------------------|
A|-------------------------|-----------------------|
E|-------------------------|-----------------------|

    
                                                                                                                                                                                                                                                                                                                                                                                                                                                                                                                                                                                                                                                                                                                                                                                                                                                                                                                                                                                                                                                                                                                                                                                              
E|--7-----7----------------|7-----7----------------|
B|--7-----7----------------|8-----8----------------|
G|--7-----7----------------|9-----9----------------|
D|-------------------------|-----------------------|
A|-------------------------|-----------------------|
E|-------------------------|-----------------------|

    
                                                                                                                                                                                                                                                                                                                                                                                                                                                                                                                                                                                                                                                                                                                                                                                                                                                                                                                                                                                                                                                                                                                                                                                              
E|--7-----------7-----7----|5-----5-----------5----|
B|--7-----------7-----7----|5-----5-----------5----|
G|--7-----------7-----7----|5-----5-----------5----|
D|-------------------------|-----------------------|
A|-------------------------|-----------------------|
E|-------------------------|-----------------------|

    
                                                                                                                                                                                                                                                                                                                                                                                                                                                                                                                                                                                                                                                                                                                                                                                                                                                                                                                                                                                                                                                                                                                                                                                              
E|--7-----------7----------|7----------------------|
B|--7-----------7----------|7----------------------|
G|--8-----------8----------|8----------------------|
D|-------------------------|-----------------------|
A|-------------------------|-----------------------|
E|-------------------------|-----------------------|

    
                                                                                                                                                                                                                                                                                                                                                                                                                                                                                                                                                                                                                                                                                                                                                                                                                                                                                                                                                                                                                                                                                                                                                                                              
E|--3----------------------------|-----------------------|
B|--5-----------------0----------|0----------------------|
G|--4--------------0-----0-------|-----------------------|
D|--2-----------2----------------|-----------------------|
A|-------------------------------|-----------------------|
E|-------------------------------|-----------------------|

    
                                                                                                                                                                                                                                                                                                                                                                                                                                                                                                                                                                                                                                                                                                                                                                                                                                                                                                                                                                                                                                                                                                                                                                                              
E|--------------3----------|-----------------------------|
B|--------------5----------|---0--------------0----------|
G|-----------2--5----------|------2--------------2-------|
D|--------2-----7----------|4--------1--------------1----|
A|-------------------------|-----------------------------|
E|-------------------------|-----------------------------|

    
                                                                                                                                                                                                                                                                                                                                                                                                                                                                                                                                                                                                                                                                                                                                                                                                                                                                                                                                                                                                                                                                                                                                                                                              
E|--0-----2--0--2--------------2--0----|-----------------------|
B|--------------------------0--------3-|3------8/3---------8/3-|
G|--4----------------------------------|-----------------------|
D|--4-----------------4----------------|-----------------------|
A|--2----------------------------------|-----------------------|
E|-------------------------------------|-----------------------|

    
                                                                                                                                                                                                                                                                                                                                                                                                                                                                                                                                                                                                                                                                                                                                                                                                                                                                                                                                                                                                                                                                                                                                                                                              
E|--------------------0-------------|---------------7--------7-------|
B|--------------1--0-----0--1--0----|---1--0-----0--------------8----|
G|--------0-------------------------|---------------8--------------9-|
D|----------------------------------|---------2----------------------|
A|----------------------------------|---------------9----------------|
E|----------------------------------|--------------------------------|

    
                                                                                                                                                                                                                                                                                                                                                                                                                                                                                                                                                                                                                                                                                                                                                                                                                                                                                                                                                                                                                                                                                                                                                                                              
E|--------------2----------|-----------------------|
B|--------------3----------|------3--------0-------|
G|--------------4----------|------4----------------|
D|-----------4--5----------|0-----4-----------4----|
A|--7----------------------|-----------------------|
E|-------------------------|-----------------------|

    
                                                                                                                                                                                                                                                                                                                                                                                                                                                                                                                                                                                                                                                                                                                                                                                                                                                                                                                                                                                                                                                                                                                                                                                              
E|-----------------------7-------|-----------------------|
B|-----------------5--8----------|0-----------7----------|
G|--------4-----5----------------|-----------------------|
D|-------------------------------|-----------------------|
A|-------------------------------|-----------------------|
E|-------------------------------|-----------------------|

    
                                                                                                                                                                                                                                                                                                                                                                                                                                                                                                                                                                                                                                                                                                                                                                                                                                                                                                                                                                                                                                                                                                                                                                                              
E|-------------------------|------3--2--0-------------------|
B|--------7-----5----------|---------------0--1--0----------|
G|--9-----------------4----|------------------------0-------|
D|--9-----7-----5-----4----|--------------------------------|
A|-------------------------|--------------------------------|
E|-------------------------|--------------------------------|

    
                                                                                                                                                                                                                                                                                                                                                                                                                                                                                                                                                                                                                                                                                                                                                                                                                                                                                                                                                                                                                                                                                                                                                                                              
E|--------------3----------|0--------------3--3-------|
B|-----------1--5----------|0--------------5--5-------|
G|--2--0--2-----5----------|0--------0-----4--4-------|
D|--------------------7----|2-----------------5-------|
A|-------------------------|---------------2----------|
E|-------------------------|--------------------------|

    
                                                                                                                                                                                                                                                                                                                                                                                                                                                                                                                                                                                                                                                                                                                                                                                                                                                                                                                                                                                                                                                                                                                                                                                              
E|-------------------------|-----------------------|
B|--0----------------------|------3----------------|
G|--0----------------------|---2-------------------|
D|--2----------------------|4----------------------|
A|-------------------------|-----------------------|
E|-------------------------|-----------------------|

    
                                                                                                                                                                                                                                                                                                                                                                                                                                                                                                                                                                                                 
E|--7-----7--------7-----7----|
B|--8-----8-----8--8-----8----|
G|--------------0--0-----0----|
D|--9-----9-----9--9-----9----|
A|----------------------------|
E|--7-----7-------------------|

    
                                                                                                                                                                                                                                                                                                                                                                                                                                                                                                                                                                                                                                                                                                                                                                                                                                                                                                                                                                                                                                                                                                                                                                                              
E|--9----------------------|7-----7-----3--7-----7----|
B|--10---------------------|7-----7--------8-----8----|
G|-------------------------|7-----7-----7--7-----7----|
D|--11---------------------|--------------------------|
A|-------------------------|--------------------------|
E|-------------------------|--------------------------|

    
                                                                                                                                                                                                                                                                                                                                                                                                                                                                                                                                                                                                                                                                                                                                                                                                                                                                                                                                                                                                                                                                                                                                                                                              
E|--9-----9-----------7----|11----11---------------|
B|--10----10----------0----|12----12---------------|
G|--9-----9-----------9----|11----11---------------|
D|--11----11----------11---|13----13---------------|
A|--12----12---------------|-----------------------|
E|-------------------------|-----------------------|

    
                                                                                                                                                                                                                                                                                                                                                                                                                                                                                                                                                                                                                                                                                                                                                                                                                                                                                                                                                                                                                                                                                                                                                                                              
E|--7-----------7--7-----7----|2-----0--2--2--0-----2--3--------5--3-----0----|
B|--8-------------------------|---0-----------------------------------------0-|
G|--8-----------7--7-----7----|-----------------------------------------------|
D|--9-----------7--7-----7----|-----------------------------------------------|
A|--------------9--9-----9----|-----------------------------------------------|
E|----------------------------|-----------------------------------------------|

    
                                                                                                                                                                                                                                                                                                                                                                                                                                                                                                                                                                                                                                                                                                                                                                                                                                                                                                                                                                                                                                                                                                                                                                                              
E|-------------------------|---------------------5-|
B|-------------------------|---------------------5-|
G|--------4-----4----------|2-----0--------------5-|
D|--------4----------------|------------2--------7-|
A|-------------------------|-----------------------|
E|-------------------------|-----------------------|

    
                                                                                                                                                                                                                                                                                                                                                                                                                                                                                                                                                                                                                                                                                                                                                                                                                                                                                                                                                                                                                                                                                                                                                                                              
E|-----------7-----------7-|------0-----2--0--3-----0--2-----0--2-|
B|-----------7-----------8-|---------0-----------0--------0-------|
G|-----------9-----------9-|--------------------------------------|
D|-----------9-----------9-|--------------------------------------|
A|-------------------------|--------------------------------------|
E|-------------------------|--------------------------------------|

    
                                                                                                                                                                                                                                                                                                                                                                                                                                                                                                                                                                                                                                                                                                                                                                                                                                                                                                                                                                                                                                                                                                                                                                                              
E|-----------3--------3----|-----------------------|
B|--3--------------3-----3-|5-----3-----1-----0----|
G|-------------------------|5-----4-----2-----0----|
D|-------------------------|-----------------------|
A|-------------------------|-----------------------|
E|-------------------------|-----------------------|

    
                                                                                                                                                                                                                                                                                                                                                                                                                                                                                                                                                                                                                                                                                                                                                                                                                                                                                                                                                                                                                                                                                                                                                                                              
E|--------7-----7--------7-----7----------|------7--7--7-----7-----7--7-------|
B|--------7-----7--------7--------7-------|------7--7--7--7--7-----7--7-------|
G|--------8-----8--------8-----------9----|---------------------7-------------|
D|--------------------------------------9-|------9--9--9-----9-----9--9--9----|
A|--9--------------------9----------------|7----------------------------------|
E|----------------------------------------|-----------------------------------|

    
                                                                                                                                                                                                                                                                                                                                                                                                                                                                                                                                                                                                                                                                                                                                                                                                                                                                                                                                                                                                                                                                                                                                                                                              
E|--------2----------------|------------3----------|
B|--------3--3--0--------0-|1----------------------|
G|-----2--2----------------|-----------------------|
D|--4-----4-----------4----|------2----------------|
A|-----------------2-------|-----------------------|
E|-------------------------|-----------------------|

    
                                                                                                                                                                                                                                                                                                                                                                                                                                                                                                                                                                                                                                                                                                                                                                                                                                                                                                                                                                                                                                                                                                                                                                                              
E|-----------2-----------2-------------------|---------------3-----0-----2-------------|
B|-----0-----------0--------4--1-----0-------|---------0--------------------0----------|
G|-----------------------------------------0-|---------------------------------2-------|
D|-------------------------------------------|2----------------------------------------|
A|--2----------------------------------------|---------------------------------------2-|
E|-------------------------------------------|-----------------------------------------|

    
                                                                                                                                                                                                                                                                                                                                                                                                                                                                                                                                                                                                                                                                                                                                                                                                                                                                                                                                                                                                                                                                                                                                                                                              
E|-----------3-----0-----2-------------------|---------0--3----------|
B|-----0--------------------0----------------|------0----------------|
G|-----------------------------2-------------|-----------------------|
D|-------------------------------------------|-----------------------|
A|-----------------------------------2-------|-----------------------|
E|-------------------------------------------|-----------------------|

    
                                                                                                                                                                                                                                                                                                                                                                                                                                                                                                                                                                                                                                                                                                                                                                                                                                                                                                                                                                                                                                                                                                                                                                                              
E|--0-----------0-----0----|0----------------------|
B|--0-----------0-----0----|0----------------------|
G|--0-----------0-----0----|0----------------------|
D|--2----------------------|2----------------------|
A|-------------------------|-----------------------|
E|-------------------------|-----------------------|

About In the Wake of Poseidon : In the Wake of Poseidon is the second studio album by King Crimson . The album was recorded during instability in the band, with several personnel changes, but repeats the style of their first album . Ian McDonald and Michael Giles left the band following their first American tour in 1969 . Greg Lake was the next member to leave, after being approached by Keith Emerson to join what would become Emerson, Lake & Palmer in early 1970 . Robert Fripp was the only remaining musician in the band, taking on part of Lake agreed to sing on the recordings for In the Wake of Poseidon . Eventually, he ended up singing on the band's early 1970 single "Cat Food" It had an affiliation to bands - King Crimson. Its music is influenced by genres - progressive rock.

tabs and chords, guitar tabs, music transcription, music technology, deep learning, music information retrieval, transcribe into tabs & chords, chordify, music renditions, songsterr, reverbnation, tabulature, bollywood chords, ultimate guitar, yousician, guitar lessons, acoustic guitar, electric guitar, guitar tuner, 911 tabs