Guitar Tabs for In The Shallow

(/) Slide Up  (\) Slide Down  (h) Hammer On  (p) Pull Off  (b) Bend (r) Release (v) Vibrato (x) Muted

Tell me something girl...
e|----------------|----------------|
B|----3-----3---3-|----------------|
G|------0---2---0-|----------------|
D|----------------|----------------|
A|----------------|----------------|
E|0-0-----2-----3-|----------------|
   1 + 2 + 3 + 4 + 



Are you happy in this modern world?
E|--0--------------------3-----2--\
B|--1--------------------3-----3--
G|--0--------------------4-----2--
D|--2--------------------5-----0--
A|--3--------------------5--------
E|-----------------------3--------
   1 + 2 + 3 + 4 + 



Or do you need more?
e|----------------|----------------|
B|----3-----3---3-|----------------|
G|------0---2---0-|----------------|
D|----------------|----------------|
A|----------------|----------------|
E|0-0-----2-----3-|----------------|
   1 + 2 + 3 + 4 + 
   
   
   
Is there something else you're searching for?
E|--0--------------------3-----2--
B|--1--------------------3-----3--
G|--0--------------------4-----2--
D|--2--------------------5-----0--
A|--3--------------------5--------
E|-----------------------3--------
   1 + 2 + 3 + 4 + 


I'm fallin in'
e|----------------|---------------
B|----3-----3---3-|---------------
G|------0---2---0-|---------------
D|----------------|---------------
A|----------------|---------------
E|0-0-----2-----3-|---------------
   1 + 2 + 3 + 4 +


In all the good times I find myself longin' for change
E|--0--------------------3-----2--------0--2--3-----
B|--1--------------------3-----3--------0--3--3-----
G|--0--------------------4-----2--------0--2--4-----
D|--2--------------------5-----0--------2--0--5-----
A|--3--------------------5--------------2-----5-----
E|-----------------------3--------------0-----3-----
    1 + 2 + 3 + 4 +



And in the bad times I fear myself
E|--0--------------------3-----2--------0--2--3-----
B|--1--------------------3-----3--------0--3--3-----
G|--0--------------------4-----2--------0--2--4-----
D|--2--------------------5-----0--------2--0--5-----
A|--3--------------------5--------------2-----5-----
E|-----------------------3--------------0-----3-----
    1 + 2 + 3 + 4 +



E|--0--2--3--
B|--0--3--3--
G|--0--2--4--
D|--2--0--5--
A|--2-----5--
E|--0-----3--
    1 + 2 + 3 + 4 + 



Aren't you tired tryin' fill that void
E|--0--------------------3-----2--
B|--1--------------------3-----3--
G|--0--------------------4-----2--
D|--2--------------------5-----0--
A|--3--------------------5--------
E|-----------------------3--------
   1 + 2 + 3 + 4 + 



Or do you need more?
e|----------------|----------------|
B|----3-----3---3-|----------------|
G|------0---2---0-|----------------|
D|----------------|----------------|
A|----------------|----------------|
E|0-0-----2-----3-|----------------|
   1 + 2 + 3 + 4 + 



Ain't it hard keeping it so hardcore
E|--0--------------------3-----2--
B|--1--------------------3-----3--
G|--0--------------------4-----2--
D|--2--------------------5-----0--
A|--3--------------------5--------
E|-----------------------3--------
   1 + 2 + 3 + 4 + 


I'm fall-ing
E|--0--2--3--------
B|--0--3--3--------
G|--0--2--4--------
D|--2--0--5--------
A|--2-----5--------
E|--0-----3--------
    1 + 2 + 3 + 4 +


In all the good times I find myself longin' for change
E|--0--------------------3-----2--------0--2--3-----
B|--1--------------------3-----3--------0--3--3-----
G|--0--------------------4-----2--------0--2--4-----
D|--2--------------------5-----0--------2--0--5-----
A|--3--------------------5--------------2-----5-----
E|-----------------------3--------------0-----3-----
    1 + 2 + 3 + 4 +



And in the bad times I fear myself
E|--0--------------------3-----2--------0--2--3-----
B|--1--------------------3-----3--------0--3--3-----
G|--0--------------------4-----2--------0--2--4-----
D|--2--------------------5-----0--------2--0--5-----
A|--3--------------------5--------------2-----5-----
E|-----------------------3--------------0-----3-----
    1 + 2 + 3 + 4 +


I'm off the deep end, watch as I dive in
E|--0--------------2-----------
B|--1--------------3-----------
G|--2--------------2-----------
D|--2--------------0-----------
A|--0--------------------------
E|-----------------------------



I'll never meet the ground
E|--3--------2-----0--
B|--3--------3-----0--
G|--4--------2-----0--
D|--5--------0-----2--
A|--5--------------2--
E|--3--------------0--



Crash through the surface, where they can't hurt us
E|--0--------------2--------------
B|--1--------------3--------------
G|--2--------------2--------------
D|--2--------------0--------------
A|--0-----------------------------
E|--------------------------------



Wh're far from the shallow now
E|-----3--------2-----0--
B|-----3--------3-----0--
G|-----4--------2-----0--
D|-----5--------0-----2--
A|-----5--------------2--
E|-----3--------------0--



In the sha-ha-sha-la-la-la-low
E|--3-----------2--------
B|--3-----------3--------
G|--4-----------2--------
D|--5-----------0--------
A|--5--------------------
E|--3--------------------



In the sha-ha-sha-ha-low
E|--0-----2--------------0--------
B|--1-----3--------------0--------
G|--2-----2--------------0--------
D|--2-----0--------------2--------
A|--0--------------------2--------
E|-----------------------0--------



In the sha-ha-sha-la-la-la-low
E|--3-----------2--------
B|--3-----------3--------
G|--4-----------2--------
D|--5-----------0--------
A|--5--------------------
E|--3--------------------



We're far from the shallow now
E|-----3-----------2-----0--
B|-----3-----------3-----0--
G|-----4-----------2-----0--
D|-----5-----------0-----2--
A|-----5-----------------2--
E|-----3-----------------0--



Wooaaaah
E|--0-----2-----2--
B|--0-----3-----3--
G|--0-----4-----2--
D|--2-----4-----0--
A|--2-----2--------
E|--0--------------



Woaaaaaaaaaaaaaaaaaahhhhh
E|--0-----0-----2-----2-----0-----\\
B|--2-----0-----3-----3-----2-----
G|--2-----0-----4-----2-----2-----
D|--2-----2-----4-----0-----2-----
A|--0-----2-----2-----------0-----
E|--------0-----------------------



I'm off the deep end, watch as I dive in
E|--0--------------2-----------
B|--1--------------3-----------
G|--2--------------2-----------
D|--2--------------0-----------
A|--0--------------------------
E|-----------------------------



I'll never meet the ground
E|--3--------2-----0--
B|--3--------3-----0--
G|--4--------2-----0--
D|--5--------0-----2--
A|--5--------------2--
E|--3--------------0--



Crash through the surface, where they can't hurt us
E|--0--------------2--------------
B|--1--------------3--------------
G|--2--------------2--------------
D|--2--------------0--------------
A|--0-----------------------------
E|--------------------------------



Wh're far from the shallow now
E|-----3--------2-----0--
B|-----3--------3-----0--
G|-----4--------2-----0--
D|-----5--------0-----2--
A|-----5--------------2--
E|-----3--------------0--



In the sha-ha-sha-la-la-la-low
E|--3-----------2--------
B|--3-----------3--------
G|--4-----------2--------
D|--5-----------0--------
A|--5--------------------
E|--3--------------------


In the sha-ha-sha-ha-low
E|--0-----2--------------0--------
B|--1-----3--------------0--------
G|--2-----2--------------0--------
D|--2-----0--------------2--------
A|--0--------------------2--------
E|-----------------------0--------



In the sha-ha-sha-la-la-la-low
E|--3-----------2--------
B|--3-----------3--------
G|--4-----------2--------
D|--5-----------0--------
A|--5--------------------
E|--3--------------------



We're far from the shallow now
E|-----3-----------2-----0--
B|-----3-----------3-----0--
G|-----4-----------2-----0--
D|-----5-----------0-----2--
A|-----5-----------------2--
E|-----3-----------------0--

   
   
   
   

   
   
   

Paste any tab in acousterr's tab maker and we'll play it !!!
Now supports capo and sound effects for vibrato/pull-off/hammer/bends/mutes etc !!! Checkout help section
tabs and chords, guitar tabs, music transcription, music technology, deep learning, music information retrieval, transcribe into tabs & chords, chordify, music renditions, songsterr, reverbnation, tabulature, bollywood chords, ultimate guitar, yousician, guitar lessons, acoustic guitar, electric guitar, guitar tuner, 911 tabs