Bass Tabs for In The Pipe (mario Party 2)

 BPM : 182

Intro Section
G|--------------------2--2--------------------2--2--------------------2--2--------------------2-----
D|--------5--5--2--2--------------5--5--2--2--------------5--5--2--2--------------5--5--2--2-----2--
A|--5--5--------------------5--5--------------------5--5--------------------5--5--------------------
E|--------------------------------------------------------------------------------------------------

This Part is repeated for the rest of the song
G|--------------------2--2--------------------2--------2--4-----------2--2--------------------2-----------
D|--------5--5--2--2--------------5--5--2--2-----2-----------4--2--2--------------5--5--2--2-----5--4--2--
A|--5--5--------------------5--5--------------------5-----------------------5--5--------------------------
E|--------------------------------------------------------------------------------------------------------




tabs and chords, guitar tabs, music transcription, music technology, deep learning, music information retrieval, transcribe into tabs & chords, chordify, music renditions, songsterr, reverbnation, tabulature, bollywood chords, ultimate guitar, yousician, guitar lessons, acoustic guitar, electric guitar, guitar tuner, 911 tabs