Guitar Tabs for In The Hall Of The Mountain King

(/) Slide Up  (\) Slide Down  (h) Hammer On  (p) Pull Off  (b) Bend (r) Release (v) Vibrato (x) Muted

Tabs for Song : 

Song lyrics here
E|--------------------------------------------------------------------------------------------------
B|--------------------------------------------------------------------------------------------------
G|-----------------------------------------------------------------------2--0-----------0-----------
D|-----------0--2-----2-----1-----1-----0-----0--------------0--2-----2--------2-----2--------------
A|--0--2--3--------3-----------2-----------1--------0--2--3--------3--------------3-----------------
E|--------------------------------------------------------------------------------------------------

Song lyrics here
E|--------------------------------------------------------------------------------------------------
B|--------------------------------------------------------------------------------------------------
G|-----------------------------------------------------------------------2--0-----------0-----------
D|-----------0--2-----2-----1-----1-----0-----0--------------0--2-----2--------2-----2--------------
A|--0--2--3--------3-----------2-----------1--------0--2--3--------3--------------3-----------------
E|--------------------------------------------------------------------------------------------------

E|--------------0-----0-----------------------------------------0-----0--5--3--0-----0--3-----------
B|-----0--1--3-----1--------4--0--4-----3-----3--------0--1--3-----1--------------1-----------------
G|--2--------------------------------------3--------2-----------------------------------------------
D|--------------------------------------------------------------------------------------------------
A|--------------------------------------------------------------------------------------------------
E|--------------------------------------------------------------------------------------------------

E|--------------0-----0-----------------------------------------0-----0--5--3--0-----0--3-----------
B|-----0--1--3-----1--------4--0--4-----3-----3--------0--1--3-----1--------------1-----------------
G|--2--------------------------------------3--------2-----------------------------------------------
D|--------------------------------------------------------------------------------------------------
A|--------------------------------------------------------------------------------------------------
E|--------------------------------------------------------------------------------------------------

E|--------------------------------------------------------------------------------------------------
B|--------------0-----0-----1-----1-----0-----0-----------------0-----0-----1-----1-----0-----------
G|--------1--2-----1-----------1-----------1--------------1--2-----1-----------1--------------------
D|--2--4--------------------------------------------2--4--------------------------------------------
A|--------------------------------------------------------------------------------------------------
E|--------------------------------------------------------------------------------------------------

E|--------------------------------------------------------------------------------------------------
B|--------------0-----0-----1-----1-----0-----0-----------------0-----0-----1-----1-----0-----------
G|--------1--2-----1-----------1-----------1--------------1--2-----1-----------1--------------------
D|--2--4--------------------------------------------2--4--------------------------------------------
A|--------------------------------------------------------------------------------------------------
E|--------------------------------------------------------------------------------------------------

E|--------------------------------------------------------------------------------------------------
B|--------------------------------------------------------------------------------------------------
G|-----------------------------------------------------------------------2--0-----------0-----------
D|-----------0--2-----2-----1-----1-----0-----0--------------0--2-----2--------2-----2--------------
A|--0--2--3--------3-----------2-----------1--------0--2--3--------3--------------3-----------------
E|--------------------------------------------------------------------------------------------------

E|--------------------------------------------------------------------------------------------------
B|--------------------------------------------------------------------------------------------------
G|-----------------------------------------------------------------------2--0-----------------------
D|-----------0--2-----2-----1-----1-----0-----0--------------0--2-----2--------2-----2--------------
A|--0--2--3--------3-----------2-----------1--------0--2--3--------3--------------3-----0-----------
E|--------------------------------------------------------------------------------------------------



Paste any tab in acousterr's tab maker and we'll play it !!!
Now supports capo and sound effects for vibrato/pull-off/hammer/bends/mutes etc !!! Checkout help section
tabs and chords, guitar tabs, music transcription, music technology, deep learning, music information retrieval, transcribe into tabs & chords, chordify, music renditions, songsterr, reverbnation, tabulature, bollywood chords, ultimate guitar, yousician, guitar lessons, acoustic guitar, electric guitar, guitar tuner, 911 tabs