Guitar Tabs for In The End - Linkin Park Tabs

(/) Slide Up  (\) Slide Down  (h) Hammer On  (p) Pull Off  (b) Bend (r) Release (v) Vibrato (x) Muted

Tabs for Song : In The End 

E|-----------------------------------------------------------------------------------
B|-----------------------------------------------------------------------------------
G|-----3-----3-----------------------------3-----3-----------------------------3-----
D|--1-----------4--3--3-----3-----3--4--1-----------4--3--3-----3-----3--4--1--------
A|-----------------------------------------------------------------------------------
E|-----------------------------------------------------------------------------------

E|-----------------------------------------------------------------
B|--------------------------------------------------------0--------
G|--3-----------------------------3-----3-----------3--3-----3-----
D|-----4--3--3-----3-----3--4--1-----------4--3--------------------
A|-----------------------------------------------------------------
E|-----------------------------------------------------------------

E|-----6-----2--1--------------------------6-----2--1-----
B|--------------------4--------0--------------------------
G|--------------------------3-----3-----------------------
D|--------------------------------------------------------
A|--------------------------------------------------------
E|--------------------------------------------------------

E|--------------------------------------------------------------------------
B|--4-----------0-----------------------------------------------------------
G|-----3-----3-----3--3-----3-----------------------------3-----3-----------
D|-----------------------------4--3--3-----3-----3--4--1-----------4--3--3--
A|--------------------------------------------------------------------------
E|--------------------------------------------------------------------------

E|-----------------------------------------------------------------------------------1-----1-----
B|-----------------------------------------------------------------------2-----2--4--------------
G|-----------------3-----3-----------------------------3-----3-----------------------------------
D|--3-----3--4--1-----------4--3--3-----3-----3--4--1-----------4--3-----------------------------
A|-----------------------------------------------------------------------------------------------
E|-----------------------------------------------------------------------------------------------

E|--1-----------------------1-----------1-----1--2--1--------------------1-----1-----
B|-----2-----2--------2--4--------4--------4--------------4--------2--4--------------
G|-----------------------------------------------------------3-----------------------
D|-----------------------------------------------------------------------------------
A|-----------------------------------------------------------------------------------
E|-----------------------------------------------------------------------------------

E|--1--------------------1-----------1-----1-----2-----1-----------------------1-----
B|-----2-----2-----2--4--------4--------4-----4-----------4--2-----4--2--------------
G|-----------------------------------------------------------------------3-----------
D|-----------------------------------------------------------------------------------
A|-----------------------------------------------------------------------------------
E|-----------------------------------------------------------------------------------

Paste any tab in acousterr's tab maker and we'll play it !!!
Now supports capo and sound effects for vibrato/pull-off/hammer/bends/mutes etc !!! Checkout help section
tabs and chords, guitar tabs, music transcription, music technology, deep learning, music information retrieval, transcribe into tabs & chords, chordify, music renditions, songsterr, reverbnation, tabulature, bollywood chords, ultimate guitar, yousician, guitar lessons, acoustic guitar, electric guitar, guitar tuner, 911 tabs