Guitar Tabs for In My Head

(/) Slide Up  (\) Slide Down  (h) Hammer On  (p) Pull Off  (b) Bend (r) Release (v) Vibrato (x) Muted

Tabs for Song : 
BPM : 200

intro (slam)
E|--12-7--5--4--
B|--14-9--7--5--
G|--13-8--6--4--
D|--14-9--7--6--
A|--------------
E|--------------

bass
E|--------------
B|--------------
G|--------------
D|--------------
A|--12-11-------
E|--------11-12-

build 
(sam e)
E|--------------
B|--------------
G|--------------
D|--7--7--6--1--
A|--8--7--4--2--
E|--------------

slam

E|--------9--11-
B|--9--9--9--12-
G|--8--8--9--11-
D|--9--9--11-13-
A|--7--6--------
E|--------------

bass
E|-----------------------------------------
B|-----------------------------------------
G|-----------------------------------------
D|--------4--------------------------------
A|--5--7-----5--4--5--7--4--2--4--5--2--0--
E|-----------------------------------------

chorus

sam e
E|--7--11-11\10\9--11-13-
B|--9--12-12\11\10-12-14-
G|--8--11-11\10\9--11-13-
D|--9--13-13\12\11-13-15-
A|--7--------------------
E|-----------------------

slam
E|--7--7-----------
B|--9--9--5--7--8--
G|--8--8--6--8--9--
D|--9--9--7--9--10-
A|--7--6--7--9--10-
E|--------5--7--8--

bass follows sam e guitar lowest note

break (all, bass plays lowest note)
E|--7--
B|--9--
G|--8--
D|--9--
A|--7--
E|-----

chorus 2: sams switch parts, harry follows sam e's new low note (old slam chords)

break

bridge (slam strums, harry and sam e play chords one note at a time)
E|--12\7--
B|--14\9--
G|--13\8--
D|--14\9--
A|--12\7--
E|--------
 
 outro just sam

Use manual mode to free up cursor. Paste any tab in acousterr tab maker and we'll play it !!!
tabs and chords, guitar tabs, music transcription, music technology, deep learning, music information retrieval, transcribe into tabs & chords, chordify, music renditions, songsterr, reverbnation, tabulature, bollywood chords, ultimate guitar, yousician, guitar lessons, acoustic guitar, electric guitar, guitar tuner, 911 tabs