Guitar Tabs for I-mage

(/) Slide Up  (\) Slide Down  (h) Hammer On  (p) Pull Off  (b) Bend (r) Release (v) Vibrato (x) Muted

Tabs & Chords
BPM : 144.0
Check Track 2 for Chord Positions 

    D#m                                                            B                             
E|--2-----2--------------------------2-----2-----------------------2--2--2--2--2--2--------------
B|-----------------2-----------2--4-----------4--2-----------2--4-----------------------------2--
G|--------------3--------3-----------------------------3--------------------------------3--------
D|-----------1-----------------------------------------------------------------------------------
A|-----------------------------------------------------------------------------------------------
E|-----------------------------------------------------------------------------------------------

                      F#                B     D#m                                             
E|-----2--2--2--2-----------------------2-----2--2--------------------2-----2-----------------
B|--4-----------------2--------0--2--4--------------2-----------2--4-----------4-----------2--
G|--------------------------3-----------------------------3--------------------------3--3-----
D|--------------------------------------------------------------------------------------------
A|--------------------------------------------------------------------------------------------
E|--------------------------------------------------------------------------------------------

       B                                                     D#m                                 
E|-----2--2--------------------2--2--2-----------------2-----2--2-----------------------2--------
B|--4-----------2--------------------------2-----2--4--------------2-----------2--4--4-----------
G|--------------------3--------------------------------------------------3-----------------------
D|--------------------------1-----------------------------------------------------------------4--
A|-----------------------------------------------------------------------------------------------
E|-----------------------------------------------------------------------------------------------

                            B                                                                 
E|--------------------------2-----2-----------------------2--2--2--2--------------------------
B|-----2--2--------2--4--4--------------2-----------2--4-----------------2-----------2--4--4--
G|--------------3-----------------------------3--------------------------------3--------------
D|--------------------------------------------------------------------------------------------
A|--------------------------------------------------------------------------------------------
E|--------------------------------------------------------------------------------------------

          D#m                        
E|--2-----2--------------------------
B|--------------2--------------------
G|-----------------------------------
D|-----------------1--1-----1--1-----
A|-----------------------------------
E|-----------------------------------

Guitar Tabs for I-mage






    D#m                                                            B                             
E|--6--------------------------------------------------------------2-----------------------------
B|--7--------------------------------------------------------------4-----------------------------
G|--8--------------------------------------------------------------4-----------------------------
D|--8--------------------------------------------------------------4-----------------------------
A|--6--------------------------------------------------------------2-----------------------------
E|-----------------------------------------------------------------------------------------------

                      F#                B     D#m                                             
E|--------------------2-----------------2-----6-----------------------------------------------
B|--------------------2-----------------4-----7-----------------------------------------------
G|--------------------3-----------------4-----8-----------------------------------------------
D|--------------------4-----------------4-----8-----------------------------------------------
A|--------------------4-----------------2-----6-----------------------------------------------
E|--------------------2-----------------------------------------------------------------------

       B                                                     D#m                                 
E|-----2-----------------------------------------------------6-----------------------------------
B|-----4-----------------------------------------------------7-----------------------------------
G|-----4-----------------------------------------------------8-----------------------------------
D|-----4-----------------------------------------------------8-----------------------------------
A|-----2-----------------------------------------------------6-----------------------------------
E|-----------------------------------------------------------------------------------------------

                            B                                                                 
E|--------------------------2-----------------------------------------------------------------
B|--------------------------4-----------------------------------------------------------------
G|--------------------------4-----------------------------------------------------------------
D|--------------------------4-----------------------------------------------------------------
A|--------------------------2-----------------------------------------------------------------
E|--------------------------------------------------------------------------------------------

          D#m                        
E|--------6--------------------------
B|--------7--------------------------
G|--------8--------------------------
D|--------8--------------------------
A|--------6--------------------------
E|-----------------------------------

tabs and chords, guitar tabs, music transcription, music technology, deep learning, music information retrieval, transcribe into tabs & chords, chordify, music renditions, songsterr, reverbnation, tabulature, bollywood chords, ultimate guitar, yousician, guitar lessons, acoustic guitar, electric guitar, guitar tuner, 911 tabs