Guitar Tabs for Ilusi Tak Bertepi

(/) Slide Up  (\) Slide Down  (h) Hammer On  (p) Pull Off  (b) Bend (r) Release (v) Vibrato (x) Muted

Tabs for Song : Ilusi tak bertepi

Solo
E|-----------------------------------------------------------10-10-8--8--7--7--------------------------
B|--------7--8------------8\10-8--8--7--7---8\10\13b12-12----------------------10\12/10-8--10\12-10-10-
G|-----9--------5--5-----------------------------------------------------------------------------------
D|--9--------------------------------------------------------------------------------------------------
A|-----------------------------------------------------------------------------------------------------
E|-----------------------------------------------------------------------------------------------------

E|--------------------------------------------------10-8--7-----8--7--------7--------------------------------
B|--10-10-8--8--7--7-----7------7b7-----------7--8-----------10-------10-8-----10-8--7--10-8---7h-8h7--------
G|--------------------9-----9--------9--9--------------------------------------------------------------9--9--
D|-----------------------------------------------------------------------------------------------------------
A|-----------------------------------------------------------------------------------------------------------
E|-----------------------------------------------------------------------------------------------------------

Song lyrics here
E|--
B|--
G|--
D|--
A|--
E|--

Paste any tab in acousterr's tab maker and we'll play it !!!
Now supports capo and sound effects for vibrato/pull-off/hammer/bends/mutes etc !!! Checkout help section
tabs and chords, guitar tabs, music transcription, music technology, deep learning, music information retrieval, transcribe into tabs & chords, chordify, music renditions, songsterr, reverbnation, tabulature, bollywood chords, ultimate guitar, yousician, guitar lessons, acoustic guitar, electric guitar, guitar tuner, 911 tabs