Guitar Tabs for Song 1

(/) Slide Up  (\) Slide Down  (h) Hammer On  (p) Pull Off  (b) Bend (r) Release (v) Vibrato (x) Muted

Tabs for Song : 
BPM : 200
    

E|--------8--------------6--------------11-------------------		
B|-----9-----9--------8-----8--------13----13-------6--------
G|-----------------------------------------------------------
D|-----------------------------------------------------------
A|--8------------8\6------------6/11----------11----4--------
E|-----------------------------------------------------------


E|--------8--------------6--------------11----------------------
B|-----9-----9--------8-----8--------13-------13-11-8--6--------
G|--------------------------------------------------------------
D|--------------------------------------------------------------
A|--8------------8\6------------6/11----------------6--4--------
E|--------------------------------------------------------------


E|--------8--------------6--------------11-------------------		
B|-----9-----9--------8-----8--------13----13-------6--------
G|-----------------------------------------------------------
D|-----------------------------------------------------------
A|--8------------8\6------------6/11----------11----4--------
E|-----------------------------------------------------------



E|--------8--------------6--------------11----------------------------------
B|-----9-----9--------8-----8--------13-------13-11-8--6--------8-----------
G|--------------------------------------------------------------------------
D|--------------------------------------------------------------------------
A|--8------------8\6------------6/11----------------6--4--------6-----------
E|--------------------------------------------------------------------------

    
E|--------------------------------------------------
B|--------------------------------------------------
G|--13-13-13-6--6--6--6--6--10-10-10-8--8-----8-----
D|--13-13-13-6--6--6--6--6--10-10-10-8--8-----8-----
A|--11-11-11-4--4--4--4--4--8--8--8--6--6-----6-----
E|--------------------------------------------------

     
E|--------------------------------------------------
B|--------------------------------------------------
G|--13-13-13-6--6--6--6--6--10-10-10-8--8-----8-----
D|--13-13-13-6--6--6--6--6--10-10-10-8--8-----8-----
A|--11-11-11-4--4--4--4--4--8--8--8--6--6-----6-----
E|--------------------------------------------------
    
E|--------------------------------------------------
B|--------------------------------------------------
G|--13-13-13-6--6--6--6--6--10-10-10-8--8-----8-----
D|--13-13-13-6--6--6--6--6--10-10-10-8--8-----8-----
A|--11-11-11-4--4--4--4--4--8--8--8--6--6-----6-----
E|--------------------------------------------------

 
E|--------------------------------------------------
B|--------------------------------------------------
G|--13-13-13-6--6--6--6--6--10-10-10-8--8-----8-----
D|--13-13-13-6--6--6--6--6--10-10-10-8--8-----8-----
A|--11-11-11-4--4--4--4--4--8--8--8--6--6-----6-----
E|--------------------------------------------------







Paste any tab in acousterr's tab maker and we'll play it !!!
Now supports capo and sound effects for vibrato/pull-off/hammer/bends/mutes etc !!! Checkout help section
tabs and chords, guitar tabs, music transcription, music technology, deep learning, music information retrieval, transcribe into tabs & chords, chordify, music renditions, songsterr, reverbnation, tabulature, bollywood chords, ultimate guitar, yousician, guitar lessons, acoustic guitar, electric guitar, guitar tuner, 911 tabs