I'll Spit On Your Grave (not Finished) - Guitar Tabs

(/) Slide Up  (\) Slide Down  (h) Hammer On  (p) Pull Off  (b) Bend (r) Release (v) Vibrato (x) Muted

Tabs for Song : 
BPM : 200

Song lyrics here 
E|--------------------------------------------------------------------------------------------------
B|--------------------------------------------------------------------------------------------------
G|--------------------------------------------------------------------------------------------------
D|--------------------------------------------------------------------------------------------------
A|--0--0--6--0--0--5--0--0--3--0--0--2--3--2--3--2--0--0--6--0--0--5--0--0--3--0--0--2--3--2--3--2--
D|--0--0--6--0--0--5--0--0--3--0--0--2--3--2--3--2--0--0--6--0--0--5--0--0--3--0--0--2--3--2--3--2--

Song lyrics here 
E|---------------------------------------------------------------------------------------------------
B|--------------------------------------------------------------------------------------------------
G|--------------------------------------------------------------------------------------------------
D|--------------------------------------------------------------------------------------------------
A|--0--0--1-----0--0--1-----0--1--4--1--0--1--4--1--0--0--1-----0--0--1-----0--1--4--1--0--1--4--1--
D|--0--0--1-----0--0--1-----0--1--4--1--0--1--4--1--0--0--1-----0--0--1-----0--1--4--1--0--1--4--1--

E|--------------------------------------------------------------------------------------------------
B|--------------------------------------------------------------------------------------------------
G|--------------------------------------------------------------------------------------------------
D|--------------------------------------------------------------------------------------------------
A|--0--0--6--0--0--5--0--0--3--0--0--2--3--2--3--2--0--0--6--0--0--5--0--0--3--0--0--2--3--2--3--2--
D|--0--0--6--0--0--5--0--0--3--0--0--2--3--2--3--2--0--0--6--0--0--5--0--0--3--0--0--2--3--2--3--2--

E|-----------------------------------------------------------------------------------------------------------
B|-----------------------------------------------------------------------------------------------------------
G|-----------------------------------------------------------------------------------------------------------
D|-----------------------------------------------------------------------------------------------------------
A|--0--0--1-----0--0--1-----0--1--4--1--0--1--4--1--0--0--1-----0--0--1-----0--1--4--1--0--1--4--1--0--------
D|--0--0--1-----0--0--1-----0--1--4--1--0--1--4--1--0--0--1-----0--0--1-----0--1--4--1--0--1--4--1--0--------

E|--------------------------------------------------------------------------------------
B|--------------------------------------------------------------------------------------
G|--------------------------------------------------------------------------------------
D|--------------------------------------------------------------------------------------
A|--0-----0--2--3--2--0---5/6--------------0-----0--2--3--2--0---5/6--------5-----3-----
D|--0-----0--2--3--2--0---5/6--------------0-----0--2--3--2--0---5/6--------5-----3-----

E|-----------------------------------------------------------------------------------------
B|-----------------------------------------------------------------------------------------
G|-----------------------------------------------------------------------------------------
D|-----------------------------------------------------------------------------------------
A|--0-----0--2--3--2--0---5/6--------------0-----0--2--3--2--0---5/6--------5-----3--0-----
D|--0-----0--2--3--2--0---5/6--------------0-----0--2--3--2--0---5/6--------5-----3--0-----

E|--------------------------------------------------------------------------------------------------
B|--------------------------------------------------------------------------------------------------
G|--------------------------------------------------------------------------------------------------
D|--------------------------------------------------------------------------------------------------
A|--0--0--6--0--0--5--0--0--3--0--0--2--3--2--3--2--0--0--6--0--0--5--0--0--3--0--0--2--3--2--3--2--
D|--0--0--6--0--0--5--0--0--3--0--0--2--3--2--3--2--0--0--6--0--0--5--0--0--3--0--0--2--3--2--3--2--

E|--------------------------------------------------------------------------------------------------
B|--------------------------------------------------------------------------------------------------
G|--------------------------------------------------------------------------------------------------
D|--------------------------------------------------------------------------------------------------
A|--0--0--1-----0--0--1-----0--1--4--1--0--1--4--1--0--0--1-----0--0--1-----0--1--4--1--0--1--4--1--
D|--0--0--1-----0--0--1-----0--1--4--1--0--1--4--1--0--0--1-----0--0--1-----0--1--4--1--0--1--4--1--

E|-----------------------------------------------------------------------------------------------------------------------
B|-----------------------------------------------------------------------------------------------------------------------
G|-----------------------------------------------------------------------------------------------------------------------
D|-----------------------------------------------------------------------------------------------------------------------
A|--0--0--6--0--0--5--0--0--3--0--0--2--3--2--3--2--0--0--6--0--0--5--0--0--3--0--0--2--3--2--3--2--0--0--0--0--0--------
D|--0--0--6--0--0--5--0--0--3--0--0--2--3--2--3--2--0--0--6--0--0--5--0--0--3--0--0--2--3--2--3--2--0--0--0--0--0--------

E|--------------------------------------------------------------------------------------------
B|--------------------------------------------------------------------------------------------
G|--------------------------------------------------------------------------------------------
D|--------------------------------------------------------------------------------------------
A|--------------------------------------------------------------------------------------------
D|-----0--0-----0--0-----0--0-----0--0--------------0--0-----0--0-----0--0-----0--0-----------

E|--------------------------------------------------------------------------------------------
B|--------------------------------------------------------------------------------------------
G|--------------------------------------------------------------------------------------------
D|--------------------------------------------------------------------------------------------
A|--------------------------------------------------------------------------------------------
D|--0--0-----0--0-----0--0-----0--0--------------0--0-----0--0-----0--0-----0--0-----3--------

E|--------------------------------------------------------------------------------------------
B|--------------------------------------------------------------------------------------------
G|--------------------------------------------------------------------------------------------
D|--------------------------------------------------------------------------------------------
A|-----------------------------------------------------------------------------------3--------
D|--0--0-----0--0-----0--0-----0--0--------------0--0-----0--0-----0--0-----0--0-----3--------

E|-----------------------------------------------------------------------------------------------
B|-----------------------------------------------------------------------------------------------
G|-----------------------------------------------------------------------------------------------
D|-----------------------------------------------------------------------------------------------
A|--0--0-----0--0-----0--0-----0--0--------------0--0-----0--0-----0--0-----0--0-----3-----------
D|--0--0-----0--0-----0--0-----0--0--------------0--0-----0--0-----0--0-----0--0-----3-----------

E|-----------------------------------------------------------------------------------------------
B|-----------------------------------------------------------------------------------------------
G|-----------------------------------------------------------------------------------------------
D|-----------------------------------------------------------------------------------------------
A|--0--0-----0--0-----0--0-----0--0--------------0--0-----0--0-----0--0-----0--0-----3-----------
D|--0--0-----0--0-----0--0-----0--0--------------0--0-----0--0-----0--0-----0--0-----3-----------

E|--------------------------------------------------------------------------------------------------
B|--------------------------------------------------------------------------------------------------
G|--------------------------------------------------------------------------------------------------
D|--------------------------------------------------------------------------------------------------
A|--0--0-----0--0-----0--0-----0--0-----3-----------0--0-----0--0-----0--0-----0--0-----3-----------
D|--0--0-----0--0-----0--0-----0--0-----3-----------0--0-----0--0-----0--0-----0--0-----3-----------

E|-----------------------------------------------------------------------------------------
B|-----------------------------------------------------------------------------------------
G|-----------------------------------------------------------------------------------------
D|-----------------------------------------------------------------------------------------
A|--0--0-----0--0-----0--0-----0--0-----3-----------0--0-----0--0-----0--0-----0--0-----3--
D|--0--0-----0--0-----0--0-----0--0-----3-----------0--0-----0--0-----0--0-----0--0-----3--

E|-----------------------------------------------------------------------------------------------------
B|-----------------------------------------------------------------------------------------------------
G|-----------------------------------------------------------------------------------------------------
D|-----------------------------------------------------------------------------------------------------
A|--1--1--1--1-----0--------1--1--1--1--0--0--0-----1--1--1--1-----0--1--3--4--3--0--6--5--3--5--3--0--
D|--1--1--1--1-----0--------1--1--1--1--0--0--0-----1--1--1--1-----0--1--3--4--3--0--6--5--3--5--3--0--





Use manual mode to free up cursor. Paste any tab in acousterr tab maker and we'll play it !!!
tabs and chords, guitar tabs, music transcription, music technology, deep learning, music information retrieval, transcribe into tabs & chords, chordify, music renditions, songsterr, reverbnation, tabulature, bollywood chords, ultimate guitar, yousician, guitar lessons, acoustic guitar, electric guitar, guitar tuner, 911 tabs