Guitar Tabs for Il Labo Sinmi Oko

(/) Slide Up  (\) Slide Down  (h) Hammer On  (p) Pull Off  (b) Bend (r) Release (v) Vibrato (x) Muted

Tabs & Chords
BPM : 125.0
Check Track 2 for Chord Positions 

                                                                                              
E|--2-----1-----0--------------0--------------1--2-----1-----1--------1--2--3-----------------
B|--------------------4-----2-----4-----0-----------------------4--------------3-----3-----3--
G|-----------------------------------3--------------------------------------------------------
D|--------------------------------------------------------------------------------------------
A|--------------------------------------------------------------------------------------------
E|--------------------------------------------------------------------------------------------

                                                                                                 
E|-----------------------------------------------------------------------------1-----------------
B|-----3--3--3--2--3--4--------------3-----3-----1--2--3--4-----0-----1--1--3--------3--2-----3--
G|-----------------------3-----3-----------------------------3-----------------------------------
D|-----------------------------------------------------------------------------------------------
A|-----------------------------------------------------------------------------------------------
E|-----------------------------------------------------------------------------------------------

                
E|--------2-----
B|--3-----------
G|--------------
D|-----------4--
A|--------------
E|--------------

Guitar Tabs for Il Labo Sinmi Oko






                                                                                              
E|--------------------------------------------------------------------------------------------
B|--------------------------------------------------------------------------------------------
G|--------------------------------------------------------------------------------------------
D|--------------------------------------------------------------------------------------------
A|--------------------------------------------------------------------------------------------
E|--------------------------------------------------------------------------------------------

                                                                                                 
E|-----------------------------------------------------------------------------------------------
B|-----------------------------------------------------------------------------------------------
G|-----------------------------------------------------------------------------------------------
D|-----------------------------------------------------------------------------------------------
A|-----------------------------------------------------------------------------------------------
E|-----------------------------------------------------------------------------------------------

                
E|--------------
B|--------------
G|--------------
D|--------------
A|--------------
E|--------------

tabs and chords, guitar tabs, music transcription, music technology, deep learning, music information retrieval, transcribe into tabs & chords, chordify, music renditions, songsterr, reverbnation, tabulature, bollywood chords, ultimate guitar, yousician, guitar lessons, acoustic guitar, electric guitar, guitar tuner, 911 tabs