Guitar Tabs for Ijazat - One Night Stand Tabs

(/) Slide Up  (\) Slide Down  (h) Hammer On  (p) Pull Off  (b) Bend (r) Release (v) Vibrato (x) Muted

Tabs for Song : Ijazat

Kaise bataaye, kaise jataaye Subah tak tujhme jeena chahein
E|-----------------------------------------------------------------------------
B|--9--9--7---7/9--7--9--9--7---7/9--7--9--9--7---7/9--9--9--10-12-9---9/10-10-
G|-----------------------------------------------------------------------------
D|-----------------------------------------------------------------------------
A|-----------------------------------------------------------------------------
E|-----------------------------------------------------------------------------

Bheege labon ki, geeli hansi ko Peene ka mausam hai peena chahein
E|-----------------------------------------------------------------------------
B|--9--9--7---7/9--7--9--9--7---7/9--7--9--9--7---7/9--9--9--10-12-9---9/10-10-
G|-----------------------------------------------------------------------------
D|-----------------------------------------------------------------------------
A|-----------------------------------------------------------------------------
E|-----------------------------------------------------------------------------

Ik baat kahoon kya ijazat hai
E|--------------------------------------------
B|-----10-10-9--9--7--7-----------------------
G|--6--------------------9--9--6--7--9--6--7--
D|--------------------------------------------
A|--------------------------------------------
E|--------------------------------------------

Tere ishq ki mujhko aadat hai
E|-----------------------------7--------
B|--------7--7--7--9--9--9--9-----9--10-
G|--6--7--------------------------------
D|--------------------------------------
A|--------------------------------------
E|--------------------------------------

Ik baat kahoon kya ijazat hai
E|--------------------------------------------
B|-----10-10-9--9--7--7-----------------------
G|--6--------------------9--9--6--7--9--6--7--
D|--------------------------------------------
A|--------------------------------------------
E|--------------------------------------------

Tere ishq ki mujhko.. Aadat hai o.. aadat hai.. Aadat hai o.. aadat hai
E|-----------------------------10-10-9--12-10-9--------------10-10-9--
B|--------7--7--7--9--9--9--10-------------------12-10-9--10----------
G|--6--7--------------------------------------------------------------
D|--------------------------------------------------------------------
A|--------------------------------------------------------------------
E|--------------------------------------------------------------------
tabs and chords, guitar tabs, music transcription, music technology, deep learning, music information retrieval, transcribe into tabs & chords, chordify, music renditions, songsterr, reverbnation, tabulature, bollywood chords, ultimate guitar, yousician, guitar lessons, acoustic guitar, electric guitar, guitar tuner, 911 tabs