Guitar Tabs for Içimdeki Duman 2

(/) Slide Up  (\) Slide Down  (h) Hammer On  (p) Pull Off  (b) Bend (r) Release (v) Vibrato (x) Muted

Tabs for Song : 

Song lyrics here
E|--------------------------------------------------------------------------------------------------
B|--------------------------3--2--------------------------------3-----2-----3--2--------------------
G|-----------2-----4--------------4--2-----------------2--4-----------------------4--2-----2--------
D|--4--5--------------------------------5--5--------------------------------------------5-----------
A|--------------------------------------------------------------------------------------------------
E|--------------------------------------------------------------------------------------------------

E|-----------------------------------------------------------------------*------------------
B|-----------5-----3-----5--3--2-----------------------------3-----2-----3--2--------------
G|--2--4--------------------------4--2-----------2-----4-----------------------4--2-----2--
D|--------------------------------------5--------------------------------------------5-----
A|-----------------------------------------------------------------------------------------
E|-----------------------------------------------------------------------------------------

Song lyrics here
E|--
B|--
G|--
D|--
A|--
E|--

Paste any tab in acousterr's tab maker and we'll play it !!!
Now supports capo and sound effects for vibrato/pull-off/hammer/bends/mutes etc !!! Checkout help section
tabs and chords, guitar tabs, music transcription, music technology, deep learning, music information retrieval, transcribe into tabs & chords, chordify, music renditions, songsterr, reverbnation, tabulature, bollywood chords, ultimate guitar, yousician, guitar lessons, acoustic guitar, electric guitar, guitar tuner, 911 tabs