Guitar Tabs for Ignore This Video If You Don't Wanna Play Guitar Solo- (slg # 14)

(/) Slide Up  (\) Slide Down  (h) Hammer On  (p) Pull Off  (b) Bend (r) Release (v) Vibrato (x) Muted

Tabs & Chords
BPM : 187.0
Check Track 2 for Chord Positions 

                                                                Am          Dm                   
E|--------------------------------------------------------------------------------0--------------
B|--------------------------------------------------------------13-------------------------------
G|--------0-----------------------------------------------------------------------------------12-
D|--------------------------------------------------------------------------15----------15-------
A|-----------0-----------------0--------0--------------------------------------------------------
E|--9--------------7-----0--------6--6-----3-----6--6-----3-----------0--------------------------

          G                    Am          Dm          G              Dm          C     Am    
E|-----------------------------0-----------------0--------------0-----------------------------
B|--------------------12----------------------------------------------------------------13-13-
G|--12----14-------------------------12-------------------------------------------------------
D|--------------12-------------------------15----------12-12----------15----15----------------
A|--------------------------------------------------------------------------------15----------
E|-----------------------3--------------------------------------------------------------------

                      G                          Am    C                    G                 
E|--------------12----------------------------------------------------------------13-15-15-15-
B|--13----15-16-------12-------------------------13-------------------------------------------
G|--------------------------12-12----14----------------12-12----12----14----14----------------
D|-----------------------------------------12-------------------------------------------------
A|--------------------------------------------------------------------------------------------
E|--------------------------------------------------------------------------------------------

             C                                         
E|--15-15----15-15----------12-12-12----12-------------
B|--------------------16----------------------15-15-0--
G|-----------------------------------------------------
D|-----------------------------------------------------
A|-----------------------------------------------------
E|-----------------------------------------------------

Guitar Tabs for Ignore This Video If You Don't Wanna Play Guitar Solo- (slg # 14)






                                                                Am          Dm                   
E|--------------------------------------------------------------0-----------1--------------------
B|--------------------------------------------------------------1-----------3--------------------
G|--------------------------------------------------------------2-----------2--------------------
D|--------------------------------------------------------------2-----------0--------------------
A|--------------------------------------------------------------0--------------------------------
E|-----------------------------------------------------------------------------------------------

          G                    Am          Dm          G              Dm          C     Am    
E|--------3--------------------0-----------1-----------3--------------1-----------0-----0-----
B|--------3--------------------1-----------3-----------3--------------3-----------1-----1-----
G|--------4--------------------2-----------2-----------4--------------2-----------0-----2-----
D|--------5--------------------2-----------0-----------5--------------0-----------2-----2-----
A|--------5--------------------0-----------------------5--------------------------3-----0-----
E|--------3--------------------------------------------3--------------------------------------

                      G                          Am    C                    G                 
E|--------------------3--------------------------0-----0--------------------3-----------------
B|--------------------3--------------------------1-----1--------------------3-----------------
G|--------------------4--------------------------2-----0--------------------4-----------------
D|--------------------5--------------------------2-----2--------------------5-----------------
A|--------------------5--------------------------0-----3--------------------5-----------------
E|--------------------3-----------------------------------------------------3-----------------

             C                                         
E|-----------0-----------------------------------------
B|-----------1-----------------------------------------
G|-----------0-----------------------------------------
D|-----------2-----------------------------------------
A|-----------3-----------------------------------------
E|-----------------------------------------------------

tabs and chords, guitar tabs, music transcription, music technology, deep learning, music information retrieval, transcribe into tabs & chords, chordify, music renditions, songsterr, reverbnation, tabulature, bollywood chords, ultimate guitar, yousician, guitar lessons, acoustic guitar, electric guitar, guitar tuner, 911 tabs