Guitar Tabs for If You Want Love - Nf

(/) Slide Up  (\) Slide Down  (h) Hammer On  (p) Pull Off  (b) Bend (r) Release (v) Vibrato (x) Muted

Tabs for Song : 
BPM : 100
Capo fret 3

Song lyrics here
E|--1-----------------------------1-----------------------------------4--4--4--4--1-----------4--4--4--
B|-----4--2-----2--4-----2-----2-----4--2--2--4--4-----------2--2--2--------------------2--2-----------
G|-----------3--------------3--------------------------3--------------------------------1--------------
D|-----------------------------------------------------------------------------------------------------
A|-----------------------4--------------------------1-----4-----------------------------------3--------
E|--------------------2--------------------------------------------------------------4-----------------

Song lyrics here
E|--1--4--4--4--1--1-----------------------4--4--4--4--1--------4--6--4--6--4--6--4--6--------------
B|--------------------4-----------2--2--2-----------------4-----------------------------2--2--2--2--
G|-----------------------------1-----------------------------------------3--------------------------
D|--------------------------------------------------------------------------------------------------
A|--------------------------4--------------------------------------4--------------------------------
E|-----------------------1-----------------------------------2--------------------------------------

E|-----------------------4--4--4--4--1--------4--6--4--6--4--6--4--6--------------------1-----1-----1--
B|--4-----------2--2--2-----------------4-----------------------------2--2--2--2--2--------4-----4-----
G|-----------------------------------------------------3-----------------------------------------------
D|-----------------------------------------------------------------------------------------------------
A|--------4--------------------------------------4--------------------------------1-----4--------------
E|-----1-----4-----------------------------2-----------------------------------------------------------

E|--1-----1-----1-----------------4-----------------4-----------------4--------
B|-----4-----4-----2--4--4-----------2--2--2--2--------2--2--2--2--------4--2--
G|-----------------------------1-----------------------------------------------
D|-----------------------------------------------------------------------------
A|--4-----------------------------3--------------4-----------------4--1--------
E|--------------------------4-----------------1-----4-----------2--------------

Paste any tab in acousterr's tab maker and we'll play it !!!
Now supports capo and sound effects for vibrato/pull-off/hammer/bends/mutes etc !!! Checkout help section

tabs and chords, guitar tabs, music transcription, music technology, deep learning, music information retrieval, transcribe into tabs & chords, chordify, music renditions, songsterr, reverbnation, tabulature, bollywood chords, ultimate guitar, yousician, guitar lessons, acoustic guitar, electric guitar, guitar tuner, 911 tabs