Guitar Tabs for If U Thought Hot For Teacher Was A Stretch...

(/) Slide Up  (\) Slide Down  (h) Hammer On  (p) Pull Off  (b) Bend (r) Release (v) Vibrato (x) Muted

Tabs for Song : 

Song lyrics here
E|--12----12----12----12-19-12-21-12h20-12-19-12-18-12-17p12----12----12-18p12----12-------
B|-----21----20----21----------------------------------------21----20----------21----21p19-
G|-----------------------------------------------------------------------------------------
D|-----------------------------------------------------------------------------------------
A|-----------------------------------------------------------------------------------------
E|-----------------------------------------------------------------------------------------

E|--12/17-12-12-20-12-10-17-12-22-15-12----12----12-22-
B|-----------21-12-21-17-15-21-19-17-10-8--18-10-------
G|--------------------13-11-19-13-19-6--15-------------
D|--------------------------17-16----------------------
A|-----------------------------------------------------
E|-----------------------------------------------------

Song lyrics here
E|--
B|--
G|--
D|--
A|--
E|--

Paste any tab in acousterr's tab maker and we'll play it !!!
Now supports capo and sound effects for vibrato/pull-off/hammer/bends/mutes etc !!! Checkout help section
tabs and chords, guitar tabs, music transcription, music technology, deep learning, music information retrieval, transcribe into tabs & chords, chordify, music renditions, songsterr, reverbnation, tabulature, bollywood chords, ultimate guitar, yousician, guitar lessons, acoustic guitar, electric guitar, guitar tuner, 911 tabs