Guitar Tabs for Idk Love

E|--0-----3--3--3--0--0--------0-----3-----3--3--3--0--0-----------------0-----3--3--3--0--0-----------0-----0----
B|--1--------------------3--1--------0--------------------3--3--1--------1--------------------3--3--1--------0----
G|--0--------------------------------0-----------------------------2--0--2-----------------------------------0----
D|--2--------------------------------0-----------------------------------2-----------------------------------2----
A|--3--------------------------------2-----------------------------------0-----------------------------------2----
E|-----------------------------------3-----------------------------------------------------------------------0----

E|--3--3--3--0--0--------------------0-----------0--1--0-----------------3-----------0--1--0-----------0-----0----
B|-----------------3--3--1-----------1-----1--3-----------3--3--1--1-----0-----1--3-----------3--3--1--------1----
G|--------------------------2--0-----0-----------------------------------0-----------------------------------2----
D|-----------------------------------2-----------------------------------0-----------------------------------2----
A|--------------------2--------------3-----------------------------------2-----------------------------------0----
E|-----------------------------------------------------------------------3----------------------------------------

E|--3--3--3--0--0--------------------0--------0--------------------0--------0-----------------0--------0--------
B|-----------------3--3--1--1-----1--0--3--1-----3--1-----------1--1---3--1-----3--1----------0--3--1-----3--1--
G|-----------------------------------0-----------------2--0--------0------------------2--0----0-----------------
D|-----------------------------------2-----------------------------2--------------------------0-----------------
A|-----------------------------------2-----------------2-----------3--------------------------2-----------------
E|-----------------------------------0--------------------------------------------------------3-----------------

E|--------------------3--0-----3--0-----0--0--------------------3--0-----3--0-----------------0----------------
B|-----------------------------------------------3--------1-----------------------3-----1--3-------------------
G|--------0----------------------------------------------------------------------------------------------------
D|--0--2-----0-------------------------------------------------------------------------------------------------
A|--------------------3-----3-----3-----3-----3-----3----------------------------------------------------------
E|--------------------------------------------------------------3-----3-----3-----3-----3----------------------

E|-----3--5-----3-----3--0--------3----5------3-----------3-----0--------------------------------------------
B|--1--------------3--------------------------------3--------------3-----r--e--p--e--a--t--------------------
G|-----------------------------------------------------------------------------------------------------------
D|-----------------------------------------------------------------------------------------------------------
A|-----0-----0-----0--0-----0--------------------------------------2-----------------------------------------
E|--------------------------------0--------0--------0-----0--------------------------------------------------

Song lyrics here
E|-----------0--0--0--0--0-----------0-----0--0---0h1--0-----------------5--3--0-----------5--3--0-----------
B|-----1--1--1--------------3--------1--------------------3--1--1-----------------1--1--------------1--------
G|-----------0-----------------------0-----------------------------------------------------------------------
D|-----------2-----------------------2-----------------------------------------------------------------------
A|-----------3-----------------------3-----------------------------------------------------------------------
E|--------------------------------------------------------------------3-----------------3--------------------



E|-----0--0--0--0--0-----0--0--0--0--1--0--------------5--3--0-----------5--3--0-----------------------------
B|-----1--------------3--------------------3--1--1--------------1--1--------------1--------------------------
G|-----2-----------------------------------------------------------------------------------------------------
D|-----2-----------------------------------------------------------------------------------------------------
A|-----0--------------------------------------------------------------2--------------------------------------
E|--------------------------------------------------0--------------------------------------------------------

E|-----3--0--3--0--0--0-----------3--0--3--0-----------0-----------3--5--3-----3--0-----3--5--3-----3--0----
B|-----1-----------------3-----1--0-----------3--1--3--------1--------------3--------------------3--------3-
G|-----0--------------------------0-------------------------------------------------------------------------
D|-----2--------------------------0-------------------------------------------------------------------------
A|-----3--------------------------2--------------------------------0--------------------------------------2-
E|--------------------------------3-----------------------------------------------------0-------------------

E|-----3-----0-----3-----0-----0-----0--------------------------3-----0--------3--0--------------0-----------
B|--1--------------------------------------3--------------------------------------------3--1--3--------------
G|-----------------------------------------------------------------------------------------------------------
D|-----------------------------------------------------------------------------------------------------------
A|-----3--------3--------3-----3--------3-----3-----3-----3--------------------------------------------------
E|--------------------------------------------------------------3--------3--------3-----3--3--------3--3--3--

E|--------3--5-----3-----3--0-----------------3--5-----3-----3--0--------------------------------------------
B|--1-----------------3-----------------------------------3-----------3--------------------------------------
G|-----------------------------------------------------------------------------------------------------------
D|-----------------------------------------------------------------------------------------------------------
A|--------0-----0-----0--0-----0--0--0--0--------------------------2-----------------------------------------
E|--------------------------------------------0-----0-----0--0-----------------------------------------------

E|-----3--0--3--0-----------------3--0--3--0--------------------3--0--3--0-----------------------------------
B|-----1--------------------------0--------------------------------------------------0--1---3--1-0-----------
G|-----0--------------------------0--------------------------------------------0--2-----------------0--------
D|-----2--------------------------0-----------------------------------------------------------------2--------
A|-----3-----------3--3--3--3--3--2-----------------------------0-----------------------------------2--------
E|--------------------------------3-----------3--3--3--3--3-----------------------------------------0--------
tabs and chords, guitar tabs, music contests, music covers, songsterr, reverbnation, renditions, tabulature, bollywood chords, ultimate guitar, yousician, guitar lessons, torrins, fender, gibson, acoustic guitar, electric guitar, youtube covers, gootar, guitar tuner, A-Z tabs, 911 tabs