Guitar Tabs for Bedtime Story

(/) Slide Up  (\) Slide Down  (h) Hammer On  (p) Pull Off  (b) Bend (r) Release (v) Vibrato (x) Muted

Tabs for Song : 

Song lyrics here
E|--5--------8-----8--------8---------------------------
B|--------------8--------------------5-----------------
G|-----7--5-----------7--5-----7--------5-----------5--
D|--------------------------------7--------7-----5-----
A|--------------------------------------------5--------
E|-----------------------------------------------------

Song lyrics here
E|--------------------------------------------------8--------------8--
B|-----------5--8---------------8h5-----------5--8--------------------
G|--5--7-----------7--5--------------------7-----------------5--------
D|--------5--------------5------------5h7-----------------5-----------
A|--------------------------7-----------------------------------------
E|-----------------------------------------------------8--------8-----

E|-----------8------------------------------------8/5-----------------8-----------
B|--------8-----8--------------------------8--10-------5--8--------5-----8--------
G|-----------------9---7\9-----------------------------------7--5-----------9-----
D|-----7-----------------------------7--10-------------------------------------10-
A|-----------------------------7--10----------------------------------------------
E|--8-----------------------10----------------------------------------------------

E|-----------------------------12----------------------
B|--------------------------10----13-------------------
G|-----------------------12----------12----------------
D|--10-------12-10----------------------10-------12-10-
A|-----10-12-------10-12-------------------10-12-------
E|-----------------------------------------------------

E|-----------8---------------------------------8/5-----------------8-----------
B|--------8-----------------------------8--10-------5--8--------5-----8--------
G|--------------9---7/9-----------------------------------7--5-----------9-----
D|-----7--------------------------7--10-------------------------------------10-
A|--------------------------7--10----------------------------------------------
E|--8--------------------10----------------------------------------------------

Paste any tab in acousterr's tab maker and we'll play it !!!
Now supports capo and sound effects for vibrato/pull-off/hammer/bends/mutes etc !!! Checkout help section
tabs and chords, guitar tabs, music transcription, music technology, deep learning, music information retrieval, transcribe into tabs & chords, chordify, music renditions, songsterr, reverbnation, tabulature, bollywood chords, ultimate guitar, yousician, guitar lessons, acoustic guitar, electric guitar, guitar tuner, 911 tabs