Guitar Tabs for Icewolf Ninja

(/) Slide Up  (\) Slide Down  (h) Hammer On  (p) Pull Off  (b) Bend (r) Release (v) Vibrato

Tabs for Song : 



Song lyrics here
E|--------------------------------------------
B|--------------------------------------------
G|--9--9--9--9---7h9--10-10-10-7--9--9--10-7--
D|--------------------------------------------
A|--------------------------------------------
E|--------------------------------------------



Song lyrics here

E|-----------------------------------------------------------
B|--10-------------------------------------------------------
G|-----9--9--12--10-9--7--9--10\9-9--10-9--7--9--------------
D|-----------------------------------------------10-9--------
A|-----------------------------------------------------------
E|-----------------------------------------------------------


Add more lines by placing cursor below and adding notes


tabs and chords, guitar tabs, music contests, music covers, songsterr, reverbnation, renditions, tabulature, bollywood chords, ultimate guitar, yousician, guitar lessons, torrins, fender, gibson, acoustic guitar, electric guitar, youtube covers, gootar, guitar tuner, A-Z tabs, 911 tabs